Oops, an error
Loading. Please wait.

Weiß Wie Schnee bass

376 views 3 this week
no commentswrite comment
1 2 3 4 5
3 more votes to show rating
add to favorites
×
Save as Personal and add changes to this tab that will be seen only by you. Learn more ›
×
You can save this tab as Personal to edit and correct it or add notes. All changes will be seen only by you. Learn more »
launch autoscroll
font size
0
reset
guitar tuner
edit
Autoscroll
slow
fast
+/-
esc
set tempo
stop
Author
Difficulty
Album: Licht und Schatten
Time signature: 4/4

[Intro] (0:32)
G|-----------------|-----------------|-----------------|-----------------|-----------------|-----------------|
D|-----------------|-----------------|-----------------|-----------------|-----------------|-----------------|
A|-----------------|-----------------|-----------------|-----------------|-----------------|-----------------|
E|-----------------|-----------------|---------6-6-6---|-----------------|---------6-6-6---|-----------------|
B|---------------1-|---1-1-1-1-1-1-1-|-4-4-4-4-------1-|-1-1-1-1-1-1-1-1-|-4-4-4-4-------1-|-1-1-1-1-1-1-1-1-|

G|-----------------|-----------------|-----------------|-----------------|-----------------|-----------------|
D|-----------------|-----------------|-----------------|-----------------|-----------------|-----------------|
A|-----------------|-----------------|-----------------|-----------------|-----------------|-3~--------------|
E|---------6-6-6---|---------------4-|----4-6----------|-----------------|-----------------|-----------------|
B|-4-4-4-4-------6-|---6-6-6-6-4-6---|---6-------1-1-1~|-----------------|-----------------|-----------------|

G|-----------------|
D|-----------------|
A|-----------------|
E|-----------------|
B|-----------------|

[Verse 1] (0:54)
G|-----------------|-----------------|-----------------|-----------------|-----------------|-----------------|
D|-----------------|-----------------|-----------------|-----------------|-----------------|-----------------|
A|-3-3-3-3---------|-----------------|-1-1-1-1---------|-----------------|-3-3-3-3---------|---------------1-|
E|-----------------|-4-4-3-4---------|-----------------|-3-3-3-3---------|-----------------|-4-4-3-4---------|
B|-----------------|-----------------|-----------------|-----------------|-----------------|-----------------|

G|-----------------|-----------------|
D|-----------------|-----------------|
A|---1-1-1-1-1-1-1-|-1-1-1-1---1---3-|
E|-----------------|-----------------|
B|-----------------|-----------------|

[Verse 2] (1:08)
G|-----------------|-----------------|-----------------|-----------------|-----------------|-----------------|
D|-----------------|-----------------|-----------------|-----------------|-----------------|-----------------|
A|---3-3-3-3-3-3---|---------------1-|-1-1-1-1-1-1-1---|---------------3-|---3-3-3-3-3-3---|-----------------|
E|---------------4-|-4-4-4-4-4-4-4---|---------------3-|-3-3-3-3-3-3-3---|---------------4-|-4-4-4-4-4-4-4-6-|
B|-----------------|-----------------|-----------------|-----------------|-----------------|-----------------|

G|-----------------|-----------------|
D|-----------------|-----------------|
A|-6-6-6-6-6-6-6-6-|-6-6-6-6-6-6-6-4-|
E|-----------------|-----------------|
B|-----------------|-----------------|

[Pre-Chorus 1] (1:22)
G|-----------------|-----------------|-----------------|-----------------|-----------------|-----------------|
D|-----------------|-----------------|-----------------|-----------------|-----------------|-----------------|
A|-----------------|-----------------|-----------------|-----------------|-----------------|-----------------|
E|---4-4-4-4-4-4-4-|-4-4-4-4-4---4-6-|---6-6-6-6-6-6-6-|-6-6-6-6-6-6-6-4-|---4-4-4-4-4-4-4-|-4-4-4-4-4---4-6-|
B|-----------------|-----------6-----|-----------------|-----------------|-----------------|-----------6-----|

G|-----------------|-----------------|
D|-----------------|-----------------|
A|---6-6-6-6-6-6-6-|-6-6-6-6-6-------|
E|-----------------|-----------------|
B|-----------------|-----------------|

[Chorus 1] (1:37)
G|-----------------|-----------------|-----------------|-----------------|-----------------|-----------------|
D|-----------------|-----------------|-----------------|-----------------|-----------------|-----------------|
A|-----------------|-----------------|-----------------|-----------------|-----------------|-----------------|
E|-----------------|-----6-6---------|-----------------|-----6-6---------|-----------------|-----4-4---------|
B|-1-1-------------|-4-4-------------|-1-1-------------|-4-4-------------|-1-1-------------|-1-1-----------6-|

G|-----------------|-----------------|-----------------|-----------------|-----------------|-----------------|
D|-----------------|-----------------|-----------------|-----------------|-----------------|-----------------|
A|-----------------|-----------------|-----------------|-----------------|-----------------|-----------------|
E|---------------4-|-----4-6---6-----|-----------------|---------6-6-6---|-----------------|---------6-6-6---|
B|---6-6-6-6-4-6---|---6-----------1-|---1-1-1-1-1-1-1-|-4-4-4-4-------1-|-1-1-1-1-1-1-1-1-|-4-4-4-4-------1-|

G|-----------------|-----------------|-----------------|-----------------|
D|-----------------|-----------------|-----------------|-----------------|
A|-----------------|-----------------|-----------------|---------------3-|
E|-----------------|---------6-6-6---|---------------4-|-----4-6---------|
B|-1-1-1-1-1-1-1-1-|-4-4-4-4-------6-|---6-6-6-6-4-6---|---6-------1-1---|

[Verse 3] (2:05)
G|-----------------|-----------------|-----------------|-----------------|-----------------|-----------------|
D|-----------------|-----------------|-----------------|-----------------|-----------------|-----------------|
A|---3-3-3-3-3-3---|---------------1-|-1-1-1-1-1-1-1---|---------------3-|---3-3-3-3-3-3---|-----------------|
E|---------------4-|-4-4-4-4-4-4-4---|---------------3-|-3-3-3-3-3-3-3---|---------------4-|-4-4-4-4-4-4-4-6-|
B|-----------------|-----------------|-----------------|-----------------|-----------------|-----------------|

G|-----------------|-----------------|
D|-----------------|-----------------|
A|-----------------|-----------------|
E|-6-6-6-6-6-6-6-6-|-6-6-6-6-6-6-6-4-|
B|-----------------|-----------------|

[Pre-Chorus 2] (2:20)
G|-----------------|-----------------|-----------------|-----------------|-----------------|-----------------|
D|-----------------|-----------------|-----------------|-----------------|-----------------|-----------------|
A|-----------------|-----------------|-----------------|-----------------|-----------------|-----------------|
E|---4-4-4-4-4-4-4-|-4-4-4-4-4---4-6-|---6-6-6-6-6-6-6-|-6-6-6-6-6-6-6-4-|---4-4-4-4-4-4-4-|-4-4-4-4-4---4-6-|
B|-----------------|-----------6-----|-----------------|-----------------|-----------------|-----------6-----|

G|-----------------|-----------------|
D|-----------------|-----------------|
A|---6-6-6-6-6-6-6-|-6-6-6-6-6-------|
E|-----------------|-----------------|
B|-----------------|-----------------|

[Chorus 2] (2:34)
G|-----------------|-----------------|-----------------|-----------------|-----------------|-----------------|
D|-----------------|-----------------|-----------------|-----------------|-----------------|-----------------|
A|-----------------|-----------------|-----------------|-----------------|-----------------|-----------------|
E|-----------------|-----6-6---------|-----------------|-----6-6---------|-----------------|-----4-4---------|
B|-1-1-------------|-4-4-------------|-1-1-------------|-4-4-------------|-1-1-------------|-1-1-----------6-|

G|-----------------|-----------------|-----------------|-----------------|-----------------|-----------------|
D|-----------------|-----------------|-----------------|-----------------|-----------------|-----------------|
A|-----------------|-----------------|-----------------|-----------------|-----------------|-----------------|
E|---------------4-|-----4-6---6-----|-----------------|---------6-6-6---|-----------------|---------6-6-6---|
B|---6-6-6-6-4-6---|---6-----------1-|---1-1-1-1-1-1-1-|-4-4-4-4-------1-|-1-1-1-1-1-1-1-1-|-4-4-4-4-------1-|

G|-----------------|-----------------|-----------------|-----------------|
D|-----------------|-----------------|-----------------|-----------------|
A|-----------------|-----------------|-----------------|-----------------|
E|-----------------|---------6-6-6---|---------------4-|-----4-6---------|
B|-1-1-1-1-1-1-1-1-|-4-4-4-4-------6-|---6-6-6-6-4-6---|---6-------1-1-1~|

[Verse 4] (3:03)
Actually nothing but holding the C for 7 bars, then: 
G|-----------------|
D|-----------------|
A|---------------3-|
E|-------1---1-----|
B|-----------------|

[Solo] (3:18)
G|-----------------|-----------------|-----------------|-----------------|-----------------|-----------------|
D|-----------------|-----------------|-----------------|-----------------|-----------------|-----------------|
A|---3-3-3-6-3-6---|---------------3-|---3-3-3-6-3-6---|---------------3-|---3-3-3-6-3-6---|---------------3-|
E|---------------4-|-----4-6---4-6---|---------------4-|-----4-6---4-6---|---------------4-|-----4-6---4-6---|
B|-----------------|---6-------------|-----------------|---6-------------|-----------------|---6-------------|

G|-----------------|-----------------|
D|-----------------|-----------------|
A|---3-3-3-6-3-6---|-----------------|
E|---------------4-|-----4-6---4-6---|
B|-----------------|---6-----------1-|

[Final Chorus] (3:32)
G|-----------------|-----------------|-----------------|-----------------|-----------------|-----------------|
D|-----------------|-----------------|-----------------|-----------------|-----------------|-----------------|
A|-----------------|-----------------|-----------------|-----------------|-----------------|-----------------|
E|-----------------|---------6-6-6---|-----------------|---------6-6-6---|-----------------|---------6-6-6---|
B|---1-1-1-1-1-1-1-|-4-4-4-4-------1-|-1-1-1-1-1-1-1-1-|-4-4-4-4-------1-|-1-1-1-1-1-1-1-1-|-4-4-4-4-------6-|

G|-----------------|-----------------|-----------------|-----------------|-----------------|-----------------|
D|-----------------|-----------------|-----------------|-----------------|-----------------|-----------------|
A|-----------------|-----------------|-----------------|-----------------|-----------------|-----------------|
E|---------------4-|-----4-6---------|-----------------|---------6-6-6---|-----------------|---------6-6-6---|
B|---6-6-6-6-4-6---|---6-------1-1-1-|---1-1-1-1-1-1-1-|-4-4-4-4-------1-|-1-1-1-1-1-1-1-1-|-4-4-4-4-------1-|

G|-----------------|-----------------|-----------------|-----------------|
D|-----------------|-----------------|-----------------|-----------------|
A|-----------------|-----------------|-----------------|-----------------|
E|-----------------|---------6-6-6---|---------------4-|-----4-6---------|
B|-1-1-1-1-1-1-1-1-|-4-4-4-4-------6-|---6-6-6-6-4-6---|---6-------1-1-1-|

            
            
Suggest correction
Creating personal tab
Creating personal tab
You can edit any tab online and save it as your Personal.

You can edit, replace or remove any tab part or add personal notes – all changes will be seen only by you.

Personal tabs can be accessed anytime from any device, even offline.
Learn more »
Give kudos to tab author, rate the tab!
1 2 3 4 5
comments
print report bad tab
guest
You may want to rate the tab now too:
select rating
Wanna post a correction for this tab? Suggest correction