Oops, an error
Loading. Please wait.

Rod Loves You bass

43 views 3 this week
no commentswrite comment
1 2 3 4 5
3 more votes to show rating
add to favorites
×
Save as Personal and add changes to this tab that will be seen only by you. Learn more ›
×
You can save this tab as Personal to edit and correct it or add notes. All changes will be seen only by you. Learn more »
launch autoscroll
font size
0
reset
guitar tuner
edit
Autoscroll
slow
fast
+/-
esc
set tempo
stop
------------------------------------------------------------------
                      DIE ÄRZTE - ROD ♥ YOU
------------------------------------------------------------------
Dieser etwas verstörende, aber gerade deshalb so geile Song hat so eine geile Bassline, dass ich die einfach
aufschreiben und teilen musste. Die Reihenfolge der einzelnen Riffs steht ganz am Ende des Tabs.

Im Falle von Unklarheiten oder Verbesserungsvorschlägen hier meine E-Mail-Adresse: hali271298@gmail.com
Und wenn's euch gefällt, nicht vergessen zu bewerten!

LEGENDE:

/ bzw. \ - slide
(0)      - gehaltene Note (die Klammern sind quasi ein Haltebogen)
b & r    - bend & release
x        - muting

W - ganze Note
H - halbe Note
Q - Viertelnote
E - Achtelnote
S - Sechzehntelnote
Ein Punkt neben dem Notenwert steht für eine Punktierung, einer darüber heißt, dass die Note staccato
gespielt wird.

Bei den Sechzehnteln wird ein Bluesrhythmus angedeutet, d.h. zwei Sechzehntel nacheinander werden ungefähr
wie eine Achtel- und eine Sechzehntelnote innerhalb einer Triole gespielt. Rod ist da beim Timing aber
ziemlich frei und intuitiv, also improvisiert einfach ein bisschen.

Intro
   Q.        S S S S E  S S E    Q.        S S S S E  S S E
G|-----------------------------|-----------------------------|
D|-------------------5---------|-------------------5---------|
A|-3---------3-3-5-7----7-5-3--|-0---------0-3-5-7----7-5-3--|
D|-----------------------------|-----------------------------|

                                                        .
   Q.        Q.        Q        Q.        Q     (S) S S E  S
G|----------------------------|------------------------------|
D|----------------------------|------------------------------|
A|----------------------------|-----------------------3-3--0-|
D|-0---------2---------3------|-5---------7-----(7)-x--------|

   Q.        S S S S E  S S E    Q.        S S S S E  S S E
G|-----------------------------|-----------------------------|
D|-------------------5---------|-------------------5---------|
A|-3---------3-3-5-7----7-5-3--|-0---------0-3-5-7----7-5-3--|
D|-----------------------------|-----------------------------|

   Q.        Q.        Q        H             H
G|----------------------------|-----------------------------|
D|----------------------------|-----------------------------|
A|----------------------------|-----------------------------|
D|-0---------2---------3------|-6-------------5-------------|


Strophe 1
   S S Q     S S Q     S S E    S S Q     S S Q      S S E
G|----------------------------|-----------------------------|
D|----------------------------|-----------------------------|
A|-3-3-------3-3-------3------|----------------------0-3-7\-|
D|-----------------------7-5--|-7-7-------7-7---------------|

   Q.        Q.        Q        S S E  E  S S Q      S S S     S
G|----------------------------|----------------------------------|
D|----------------------------|----------------------------------|
A|----------------------------|------------------------5-6b6.5r6-|
D|-0---------2---------3------|-5-5----2--5-5--------5-----------|

   S S Q     S S Q     S S E    S S Q     S S Q      S S E
G|----------------------------|-----------------------------|
D|----------------------------|-----------------------------|
A|-3-3-------3-3-------3------|----------------------0-3-7\-|
D|-----------------------7-5--|-7-7-------7-7---------------|

   Q.        Q.        Q        Q.        Q.         Q
G|----------------------------|-----------------------------|
D|----------------------------|-----------------------------|
A|----------------------------|-----------------------------|
D|-0---------2---------3------|-5---------7----------9------|


Pre-Chorus 1
   Q.        Q.        Q        Q.        Q.         Q
G|----------------------------|-----------------------------|
D|----------------------------|-----------------------------|
A|----------------------------|-----------0----------2------|
D|-12\-------2---------3------|-5---------------------------|

   E  Q      E  Q.         E   (W)
G|----------------------------|-----------------------------|
D|----------------------------|-----------------------------|
A|----------------------------|-----------------------------|
D|-0---------0-------------5--|(5)--------------------------|


Refrain 1
   Q.        S S S S E  S S E    Q.        S S S S E  S S E
G|-----------------------------|-----------------------------|
D|-------------------5---------|-------------------5---------|
A|-3---------3-3-5-7----7-5-3--|-0---------0-3-5-7----7-5-3--|
D|-----------------------------|-----------------------------|

   Q.        Q.        Q        Q.        Q.         Q
G|----------------------------|-----------------------------|
D|----------------------------|-----------------------------|
A|----------------------------|-----------0----------2------|
D|-0---------2---------3------|-5---------------------------|

   Q.        S S S S E  S S E    Q.        S S S S E  S S E
G|-----------------------------|-----------------------------|
D|-------------------5---------|-------------------5---------|
A|-3---------3-3-5-7----7-5-3--|-0---------0-3-5-7----7-5-3--|
D|-----------------------------|-----------------------------|

   Q.        Q.        Q        E  E  E  E  E  E  E  E
G|----------------------------|----------2-----4-----6--|
D|----------------------------|----5--------------------|
A|----------------------------|-------0-----2-----4-----|
D|-0---------2---------3------|-5-----------------------|


Zwischenspiel
                    .   .                      .   .
   S S Q     S S E  E.  E.    Q.        S S E  E.  E.
G|-----------5-5------------|-----------5-5------------|
D|--------------------------|--------------------------|
A|-3-3--------------3---2---|-0----------------7---6---|
D|--------------------------|--------------------------|

   Q.        Q.        Q        Q.        Q.         Q
G|----------------------------|-----------------------------|
D|----------------------------|-----------------------------|
A|----------------------------|-----------0----------2------|
D|-0---------2---------3------|-5---------------------------|

                    .   .                      .   .
   S S Q     S S E  E.  E.    Q.        S S E  E.  E.
G|-----------5-5------------|-----------5-5------------|
D|--------------------------|--------------------------|
A|-3-3--------------3---2---|-0----------------7---6---|
D|--------------------------|--------------------------|

   Q.        Q.        Q        H             H
G|----------------------------|-----------------------------|
D|----------------------------|-----------------------------|
A|----------------------------|-----------------------------|
D|-0---------2---------3------|-6-------------5-------------|


Strophe 2: wie Strophe 1
Pre-Chorus 2: wie Pre-Chorus 1


Refrain 2
   Q.        S S S S E  S S E    Q.        S S S S E  S S E
G|-----------------------------|-----------------------------|
D|-------------------5---------|-------------------5---------|
A|-3---------3-3-5-7----7-5-3--|-0---------0-3-5-7----7-5-3--|
D|-----------------------------|-----------------------------|

   Q.        Q.        Q        Q.        Q.         Q
G|----------------------------|-----------------------------|
D|----------------------------|-----------------------------|
A|----------------------------|-----------0----------2------|
D|-0---------2---------3------|-5---------------------------|

   Q.        S S S S E  S S E    Q.        S S S S E  S S E
G|-----------------------------|-----------------------------|
D|-------------------5---------|-------------------5---------|
A|-3---------3-3-5-7----7-5-3--|-0---------0-3-5-7----7-5-3--|
D|-----------------------------|-----------------------------|

   Q.        Q.        Q        Q.        Q.         Q
G|----------------------------|-----------------------------|
D|----------------------------|-----------------------------|
A|----------------------------|-----------0----------2------|
D|-0---------2---------3------|-5---------------------------|


Bridge
   E  E  E  E  E  E  E  E    E  E  E  E  E  E  E  E
G|-------------------------|-------------------------|
D|----2-----2-----2-----2--|----2-----2-----2-----2--|
A|-------------------------|-------------------------|
D|-2-----2-----2-----2-----|-2-----2-----2-----2-----|

   E  E  E  E  E  E  E  E    E  E  E  E  E  E  E  E
G|-------------------------|-------------------------|
D|----2-----2-----2-----2--|-------------------------|
A|-------------------------|-0--0--0--0--0--0--0--0--|
D|-2-----2-----2-----2-----|-------------------------|


Build-up
   Q.        Q.        Q        Q.        Q.         Q
G|----------------------------|-----------------------------|
D|----------------------------|-----------------------------|
A|----------------------------|-----------0----------2------|
D|-12\-------2---------3------|-5---------------------------|

   Q.        Q.        Q        Q.        Q.         Q
G|----------------------------|-----------------------------|
D|----------------------------|-----------------------------|
A|----------------------------|-----------0----------2------|
D|-12\-------2---------3------|-5---------------------------|

   Q.        Q.        Q        Q.        Q.         Q
G|----------------------------|-----------------------------|
D|----------------------------|-----------------------------|
A|----------------------------|-----------0----------2------|
D|-12\-------2---------3------|-5---------------------------|

   Q.        Q.        Q        H             Q      Q
G|----------------------------|-----------------------------|
D|----------------------------|-----------------------------|
A|----------------------------|-----------------------------|
D|-12\-------2---------3------|-6-------------5------0------|


Refrain 3
   Q.        S S S S E  S S E    Q.        S S S S E  S S E
G|-----------------------------|-----------------------------|
D|-------------------5---------|-------------------5---------|
A|-3---------3-3-5-7----7-5-3--|-0---------0-3-5-7----7-5-3--|
D|-----------------------------|-----------------------------|

                                                        .
   Q.        Q.        Q        Q.        Q     (S) S S E  S
G|----------------------------|------------------------------|
D|----------------------------|------------------------------|
A|----------------------------|-----------------------3-3--0-|
D|-0---------2---------3------|-5---------7-----(7)-x--------|

   Q.        S S S S E  S S E    Q.        S S S S E  S S E
G|-----------------------------|-----------------------------|
D|-------------------5---------|-------------------5---------|
A|-3---------3-3-5-7----7-5-3--|-0---------0-3-5-7----7-5-3--|
D|-----------------------------|-----------------------------|

   Q.        Q.        Q        Q.        Q.         Q
G|----------------------------|-----------------------------|
D|----------------------------|-----------------------------|
A|----------------------------|-----------0----------2------|
D|-0---------2---------3------|-5---------------------------|


Outro:
   Q.        S S S S E  S S E    Q.        S S S S E  S S E
G|-----------------------------|-----------------------------|
D|-------------------5---------|-------------------5---------|
A|-3---------3-3-5-7----7-5-3--|-0---------0-3-5-7----7-5-3--|
D|-----------------------------|-----------------------------|

   Q.        Q.        Q        Q.        Q.         Q
G|----------------------------|-----------------------------|
D|----------------------------|-----------------------------|
A|----------------------------|-----------0----------2------|
D|-0---------2---------3------|-5---------------------------|

                    .   .                      .   .
   S S Q     S S E  E.  E.    Q.        S S E  E.  E.
G|-----------5-5------------|-----------5-5------------|
D|--------------------------|--------------------------|
A|-3-3--------------3---2---|-0----------------7---6---|
D|--------------------------|--------------------------|

   Q.        Q.        Q        Q.        Q.         Q
G|----------------------------|-----------------------------|
D|----------------------------|-----------------------------|
A|----------------------------|-----------0----------2------|
D|-0---------2---------3------|-5---------------------------|

                    .   .                      .   .
   S S Q     S S E  E.  E.    Q.        S S E  E.  E.
G|-----------5-5------------|-----------5-5------------|
D|--------------------------|--------------------------|
A|-3-3--------------3---2---|-0----------------7---6---|
D|--------------------------|--------------------------|
                                                        .
   Q.        Q.        Q        Q.        Q     (S) S S E  S
G|----------------------------|------------------------------|
D|----------------------------|------------------------------|
A|-5--------------------------|-----------------------3-3--0-|
D|-----------2---------3------|-5---------7-----(7)-x--------|

   Q.        S S S S E  S S E    Q.        S S S S E  S S E    \
G|-----------------------------|-----------------------------| |
D|-------------------5---------|-------------------5---------| |
A|-3---------3-3-5-7----7-5-3--|-0---------0-3-5-7----7-5-3--| |
D|-----------------------------|-----------------------------| |
                                                                \ FADE-OUT
   Q.        Q.        Q        E  E  E  E  E  E  E  E          /
G|----------------------------|----------2-----4-----6--|      |
D|----------------------------|----5--------------------|      |
A|----------------------------|-------0-----2-----4-----|      |
D|-0---------2---------3------|-5-----------------------|      /

            
            
Suggest correction
Creating personal tab
Creating personal tab
You can edit any tab online and save it as your Personal.

You can edit, replace or remove any tab part or add personal notes – all changes will be seen only by you.

Personal tabs can be accessed anytime from any device, even offline.
Learn more »
Give kudos to tab author, rate the tab!
1 2 3 4 5
comments
print report bad tab
guest
You may want to rate the tab now too:
select rating
Wanna post a correction for this tab? Suggest correction