Oops, an error
Loading. Please wait.

Smukkest På En Søndag tab

5,143 views 9 this week
2 commentsread comments
1 2 3 4 5
x 3
add to favorites
×
Save as Personal and add changes to this tab that will be seen only by you. Learn more ›
×
You can save this tab as Personal to edit and correct it or add notes. All changes will be seen only by you. Learn more »
launch autoscroll
font size
0
reset
how to read this tab
guitar tuner
edit
Autoscroll
slow
fast
+/-
esc
set tempo
stop
Author
Difficulty
intermediate
About this tab version
Tab version and chord, easy to play with finger style picking. Was this info helpful? Yes No

Joey Moe - Smukkest På En Søndag
Key: B major
Chords: B, E, F#, E5 or (Key: E minor) Em C G D

[Intro/Chorus]

e|------------------x-------------------x----------------------------------|
B|------------------x---4-h-5--4--------x----------------------------------|
G|---3-h-4--3---1---x---------------3---x----------------------------------|
D|------------------x-------------------x----------------------------------|
A|---2------2---2---x---2------2----2---x----------------------------------|
E|------------------x-------------------x----------------------------------|


[Verse]

e|---------x-----------x---------x---------x---------------------------------|
B|---------x-----------x----4----x---------x---------------------------------|
G|----4----x------1----x---------x----3----x---------------------------------|
D|---------x-----------x---------x---------x---------------------------------|
A|----2----x------2----x----2----x----2----x---------------------------------|
E|---------x-----------x---------x---------x---------------------------------|


[Post-Chorus]

e|----------------------------.----------------------------------------------|
B|----------------------------.--------------5-------------------------------|
G|---1----3----4--------------.---1----3-------------------------------------|
D|----------------------------.----------------------------------------------|
A|---2----2----2--------------.---2----2-----2-------------------------------|
E|----------------------------.----------------------------------------------|

B               E
Hey, darling, darling,
B                F#
  du vender blikke på din arbejdsplads
B              E
Det' dagligt og tarveligt,
B                 F#
  dine kollegaer, da får megastres
B              E
Hey, darling, darling,
B                  F#
  du' en gave, du' min Valentine
B                 E
Du behøver ikk' pak' dig ind,


har man set en kvinde ligesom min?
E             F#             B
Har du set en kvinde ligesom min?
E             F#             E5

B               E
Du' så go' i din sommerkjol',
B                     F#
men du' smukkest på en søndag i min t-shirt
B               E
Flot og stilletter på,
B                      F#
stadig smukkest på en søndag i min t-shirt
B                E
Uden makeup, bar' se og kom,
B              F#
kom, der' plads til to
B                  E
på min sofa nu på søndag i min t-shirt

************************************

| x  Slap
| h  Hammer-on

************************************

            
            
Suggest correction
Creating personal tab
Creating personal tab
You can edit any tab online and save it as your Personal.

You can edit, replace or remove any tab part or add personal notes – all changes will be seen only by you.

Personal tabs can be accessed anytime from any device, even offline.
Learn more »
Give kudos to tab author, rate the tab!
1 2 3 4 5
comments
print report bad tab
2 comments total.
0 reply
AskeLund64 10 Jan 03, 2017 03:10 PM

Skal der capo på?

guest
You may want to rate the tab now too:
select rating
Wanna post a correction for this tab? Suggest correction