Oops, an error
Loading. Please wait.

Staten Och Kapitalet solo tab

version 1
version 1

Solo

  • This is a better version of the solo than the one ... Show more

Whole song

Interactive

166 views 1 this week
no commentswrite comment
1 2 3 4 5
3 more votes to show rating
add to favorites
×
Save as Personal and add changes to this tab that will be seen only by you. Learn more ›
×
You can save this tab as Personal to edit and correct it or add notes. All changes will be seen only by you. Learn more »
launch autoscroll
font size
0
reset
how to read this tab
guitar tuner
edit
Autoscroll
slow
fast
+/-
esc
set tempo
stop
Author
About this tab version
This is a better version of the solo than the one already existing. The one existing now only have three strings when showing how to play the solo which is very confusing. This is a correct tab. Was this info helpful? Yes No
Here is the tab for both solos in ''Staten Och Kapitalet''. I did my best to type it out
from what I could hear by ear. Standard tuning.

Enjoy!

[Solo 1]

(1:10):

e|---------------------------------------------------------------------------|
B|---------------------------------------------------------------------------|
G|------9-9------9-9------9-9-------9---7^--7--5--7--5--4--------------------|
D|--7-7------7-7-----7-7-------7-7-------------------------5-----------------|
A|---------------------------------------------------------------------------|
E|---------------------------------------------------------------------------|

e|---------------------------------------------------------------------------|
B|-------------------------------------------------8-------------------------|
G|------9-9-----9-9-----9-9-----9---7^--7--5--7/9-----7h5--4-----------------|
D|--7-7-----7-7-----7-7-----7-7----------------------------------------------|
A|---------------------------------------------------------------------------|
E|---------------------------------------------------------------------------|


[Solo 2]

(2:16):

e|-----------------------------------------------------------------------------------|
B|-----8^-8^-8-5-8^-8-------------------8-6-5-3---4/5-5-5-5-5-4/5-5-5-5-5------------|
G|--7^----------------7------5-7-7^-7-5----------------------------------------------|
D|----------------------5--7---------------------------------------------------------|
A|-----------------------------------------------------------------------------------|
E|-----------------------------------------------------------------------------------|

e|---------------------------------------------------------------------------|
B|---------8^---8^-8^-8-5-------------------------8---------------8----------|
G|-------------------------5----5-5-----5-7-5-7/9---9h7-5h7-5-7/9---7\5-4----|
D|---------------------------7------7----------------------------------------|
A|---------------------------------------------------------------------------|
E|---------------------------------------------------------------------------|

The solo played at 3:12 is the same as the first solo. The outro as well.

Tabbed by Henning Johansson.



************************************

| h  Hammer-on
| /  Slide up
| \  Slide down

************************************

            
            
Suggest correction
Creating personal tab
Creating personal tab
You can edit any tab online and save it as your Personal.

You can edit, replace or remove any tab part or add personal notes – all changes will be seen only by you.

Personal tabs can be accessed anytime from any device, even offline.
Learn more »
Give kudos to tab author, rate the tab!
1 2 3 4 5
comments
print report bad tab
guest
You may want to rate the tab now too:
select rating
Wanna post a correction for this tab? Suggest correction