Oops, an error
Loading. Please wait.

Люди Хаоса chords

by MC 1.8
28 views 1 this week
no commentswrite comment
1 2 3 4 5
3 more votes to show rating
add to favorites
×
Save as Personal and add changes to this tab that will be seen only by you. Learn more ›
×
You can save this tab as Personal to edit and correct it or add notes. All changes will be seen only by you. Learn more »
launch autoscroll
font size
0
reset
transpose
0
reset
simplify chords
display chords
guitar tuner
edit
Autoscroll
slow
fast
+/-
esc
set tempo
stop
Strumming Is this strumming pattern correct? Yes No
0 bpm
1
2
3
4
5
6
7
8
9
10
11
12
13
14
Listen
MC 1.8 - Люди Хаоса
Tempo track: 170 bpm.
Bar's size: 4/4. 
Chords by Alex Fluffyman.
Tuning: Half-Step Down (D#G#C#F#A#d#)
No capo. 

Chord's diagram:

    A/D    A5   F#5    B5
d#|--6--|-----|-----|--3--|
A#|--x--|--6--|--3--|--x--|
F#|--7--|--x--|--x--|--5--|
C#|--8--|--8--|--5--|--5--|
G#|--6--|--8--|--5--|--3--|
D#|-----|--6--|--3--|-----|


[Intro]
(0:00 - 0:22)

A/D A5 F#5 B5 (x2)


[Verse 1]
(0:23 - 1:06)

N.C.
Люди хаоса - родные не по крови
N.C.
Порядок новый, но в начале было только слово
F#5
   Не свод правил, не инструкция к действию,
                              B5     
Всепроникающий свет божественного шествия.
A/D
   Не стоило врать в попытках стать кем-то,
                    A5
Чьё имя будут повторять в ходе эксперимента
F#5
   Потомки слепо-бредущие по наставлению,
                                      B5
Туда, где льётся кровь и в порядке вещей давление

A/D
   Вот очередная возможность проснуться снова,
                      A5  
Почувствовать физически-безупречное слово
F#5
   Звонкое, как первый крик новорожденного,
                        B5    
Свежее, как планы побежденного

A/D
   Ты помнишь, как водород и гелий стали твердью,
                              A5 
Как человек дотронулся до неба, приняв крыльев наследие
F#5
   Добрый пастырь не вредит стаду,
                            N.C.
Интуитивно нам чужды запахи серы и смрада


[Verse 2]
(1:07 - 1:52)

N.C.         A/D
Кричать, что мир жесток, оставив за спиной тридцатку,
                                                A5
Так-же нелепо, как рассказывать своей маме о схватках,
F#5
   Где-то в подпорке вечно ищущий, вечно идущий,
                                 B5      A/D
Ухмылки на лицах твердят об изнуряющем удушье

Ни сразу видно детали, но нас давно списали
                                     A5
За любопытство, проверив холод стали на активных

Войны в помыслах, войны в душах,
                                F#5                                         
Выхода нет, когда в безверии разум распущен

A/D
   Увы, огрызки ногтей не заменят мести
                                     A5
Гордыня и глупость всегда ведут к нелепым действиям,
F#5
   Мётлы метут ересь, мысли метут ересь,
                     B5          A/D  
И вряд-ли в корни этому доверюсь

То, что считалось фундаментом - дрожит, как студень,
                              A5
Опасная игра, но так всегда было и будет,
F#5
   Только любовь, всего одно слово
                                   B5
Как и момент, чтоб разгадать эту загадку снова


[Bridge]
(1:53 - 1:59)
(pause)

N.C.


[Instrumental]
(1:59 - 2:44)

A/D A5 F#5 B5


[Violin Solo] (x2)

d#|---------6-----6-------|---------6-----6-------|---------6-----6-------|---------6-----6--------|
A#|---6--8-----------8--6-|---6--8-----------8--6-|---6--8-----------8--6-|---6--8-----------8--6--|
F#|8----------------------|8----------------------|8----------------------|8-----------------------|
C#|-----------------------|-----------------------|-----------------------|------------------------|
G#|-----------------------|-----------------------|-----------------------|------------------------|
D#|-----------------------|-----------------------|-----------------------|------------------------|
   1  &  2  &  3  &  4  &  1  &  2  &  3  &  4  &  1  &  2  &  3  &  4  &  1  &  2  &  3  &  4  &  |
                                                                                                   |
                                                                                                   |(x2)
                                                                                                   |
d#|--------10-15-10-------|--------10-15-10-------|--------10-15-10-------|--------10-15-10--------|
A#|8-10-11----------11-10-|8-10-11----------11-10-|8-10-11----------11-10-|8-10-11----------11-10--|
F#|-----------------------|-----------------------|-----------------------|------------------------|
C#|-----------------------|-----------------------|-----------------------|------------------------|
G#|-----------------------|-----------------------|-----------------------|------------------------|
D#|-----------------------|-----------------------|-----------------------|------------------------|
   1  &  2  &  3  &  4  &  1  &  2  &  3  &  4  &  1  &  2  &  3  &  4  &  1  &  2  &  3  &  4  & 


Потом, к партии виоланчели присоединяется партия синтезатора:

d#|11~--------------------|-----------------------|18~---------------20~--|-----15~---18~---17~----|
A#|-----------------------|-----------------------|-----------------------|------------------------|
F#|-----------------------|-----------------------|-----------------------|------------------------|
C#|-----------------------|-----------------------|-----------------------|------------------------|
G#|-----------------------|-----------------------|-----------------------|------------------------|
D#|-----------------------|-----------------------|-----------------------|------------------------|
   1  &  2  &  3  &  4  &  1  &  2  &  3  &  4  &  1  &  2  &  3  &  4  &  1  &  2  &  3  &  4  & 


d#|10~--------------------|-----------------------|-----------------------|-----------13~----------|
A#|-----------------------|-----------------------|-----------------------|------------------------|
F#|-----------------------|-----------------------|-----------------------|------------------------|
C#|-----------------------|-----------------------|-----------------------|------------------------|
G#|-----------------------|-----------------------|-----------------------|------------------------|
D#|-----------------------|-----------------------|-----------------------|------------------------|
   1  &  2  &  3  &  4  &  1  &  2  &  3  &  4  &  1  &  2  &  3  &  4  &  1  &  2  &  3  &  4  & 


d#|11~--------------------|---------------------17|11~---------------13~--|-----------17~----------|
A#|-----------------------|-----------------------|-----------------------|------------------------|
F#|-----------------------|-----------------------|-----------------------|------------------------|
C#|-----------------------|-----------------------|-----------------------|------------------------|
G#|-----------------------|-----------------------|-----------------------|------------------------|
D#|-----------------------|-----------------------|-----------------------|------------------------|
   1  &  2  &  3  &  4  &  1  &  2  &  3  &  4  &  1  &  2  &  3  &  4  &  1  &  2  &  3  &  4  & 


d#|18~-----17~-------13~--|-----15~---------------|10~---------------18~--|-----17~----------------|
A#|-----------------------|-----------------------|-----------------------|------------------------|
F#|-----------------------|-----------------------|-----------------------|------------------------|
C#|-----------------------|-----------------------|-----------------------|------------------------|
G#|-----------------------|-----------------------|-----------------------|------------------------|
D#|-----------------------|-----------------------|-----------------------|------------------------|
   1  &  2  &  3  &  4  &  1  &  2  &  3  &  4  &  1  &  2  &  3  &  4  &  1  &  2  &  3  &  4  &


************************************

| x  Dead note
| ~  Vibrato  

************************************

            
            
Suggest correction
Creating personal tab
Creating personal tab
You can edit any tab online and save it as your Personal.

You can edit, replace or remove any tab part or add personal notes – all changes will be seen only by you.

Personal tabs can be accessed anytime from any device, even offline.
Learn more »
Give kudos to tab author, rate the tab!
1 2 3 4 5
comments
print report bad tab
guest
You may want to rate the tab now too:
select rating
Wanna post a correction for this tab? Suggest correction