Oops, an error
Loading. Please wait.

Там Куда Идём chords

by MC 1.8
19 views 1 this week
no commentswrite comment
1 2 3 4 5
3 more votes to show rating
add to favorites
×
Save as Personal and add changes to this tab that will be seen only by you. Learn more ›
×
You can save this tab as Personal to edit and correct it or add notes. All changes will be seen only by you. Learn more »
launch autoscroll
font size
0
reset
transpose
0
reset
simplify chords
display chords
guitar tuner
edit
Autoscroll
slow
fast
+/-
esc
set tempo
stop
Strumming
There is no strumming pattern for this song yet. and get +5 IQ
MC 1.8 - Там, Куда Идём
Tempo track: 168 bpm.
Bar's size: 4/4 
Tuning: standard (EADGBe)
No Capo.
Chord's by Alex Fluffyman


Chord's diagram:

  Asus2 F5/C    G    G7m   A5    C5    G5     E5
e|-----|-----|-----|-----|-----|-----|-----|-----|
B|--0--|--0--|--0--|--3--|-----|-----|-----|-----|
G|--2--|--2--|--0--|--0--|--2--|--5--|-----|-----|
D|--2--|--3--|--5--|--4--|--2--|--5--|--5--|--2--|
A|--0--|--3--|--5--|--5--|--0--|--3--|--5--|--2--|
E|-----|-----|-----|-----|-----|-----|--3--|--0--|


[Intro]
(0:00 - 0:33)

Main Riff:

  Asus2                                           F5/C                          G    
e|-----------------------|-----------------------|-----------------------|-----------------------|
B|---------0-------------|---------------0-------|---------0-------------|---------------0-------|
G|------2----------------|------------2----------|------2----------------|------------0----------|
D|---2-------------------|---------2-------------|---3-------------------|---------5-------------|
A|0----------------------|------0----------------|3----------------------|------5----------------|
E|-----------------------|-----------------------|-----------------------|-----------------------|(x5)
  1  &  2  &  3  &  4  &  1  &  2  &  3  &  4  &  1  &  2  &  3  &  4  &  1  &  2  &  3  &  4  &

  Asus2                                           F5/C                          G7m            
e|-----------------------|-----------------------|-----------------------|-----------------------|
B|---------0-------------|---------------0-------|---------0-------------|---------------3-------|
G|------2----------------|------------2----------|------2----------------|------------0----------|
D|---2-------------------|---------2-------------|---3-------------------|---------4-------------|
A|0----------------------|------0----------------|3----------------------|------5----------------|
E|-----------------------|-----------------------|-----------------------|-----------------------|(x1)
  1  &  2  &  3  &  4  &  1  &  2  &  3  &  4  &  1  &  2  &  3  &  4  &  1  &  2  &  3  &  4  &


[Verse 1]
(0:34 - 1:30)

Asus2                                           
     Здесь когда-то я прятал свои слёзы отчаяния
F5/C                          G
    В капкане прокуренных подъездов и серых зданий,
Asus2
     Без мечтаний о полётах и странствиях дальних,
F5/C                     G
    Бычками на стенах писал о своих идеалах.
Asus2
     Кричал, что Бог — кидало, кварталы — круг ада,
F5/C                        G
    И тот, кто улыбается, просто в боли не падал,
Asus2
     И ты не прав по-любому, если настроен иначе,
N.C.
Звёзды сияют только на сцене и в передачах.


Asus2
     «Богатые не плачут» — сценарист неудачник.
F5/C                 G          
    Верю, что сумею сам и без ваших подачек.
Asus2
     Прошлое — перегной, узор из полученных шрамов.
F5/C                         G
    Звёзды исчезли с экранов, посыпались камни.
Asus2
     Помню, как были сделаны первые чертежи,
F5/C                    G
    Как внутри моей вселенной зародилась жизнь.
Asus2
     От большего к малому, от квазара до кванта
F5/C                G     
    Шагает мой дух через молитвы и мантры,
Asus2
     Оставив эту планету искателей.
F5/C                               G     
    Эксперимент Создателя после запечатлит ручка писателя.
Asus2
     Попытки искать его — попытки напрасные.
F5/C                 G        
    Он улыбается нам, когда стихают страсти.


[Chorus]
(1:31 - 1:53)

A5                       C5
  Но даже если разбит асфальт,
                        G5
Устала сталь и проезда нет,
                        E5
Летят к новости опять в поисках,
                       A5
Пока есть ещё свежий след.
                       C5
Одиночная камера пыток,
                                          G5
Но ты не одинок в море бесплодных попыток.
                         E5
День за днём бой с огнём.
                             N.C.
Забываем себя там, куда идём.


[Verse 2]
(1:54 - 2:39)

N.C.
Эстакады, лабиринты развязок, когда-то
F5/C                      G
    Здесь были болота, теперь мы увязли в асфальте.
Asus2
     Руки тянутся вверх из-под камней сорняками,
F5/C                            G      
    В надежде ухватить что-то кроме лесок с крюками.
Asus2
     Набор тех же метафор, надоевшие банальности.
F5/C                       G
    Жизни нет никакого дела до сроков давности.
Asus2
     Бороть порок в городе дорог. Как знать —
F5/C                   G
Вряд ли мы чем-то лучше давно уставших писак.
Asus2
     Я не претендую быть отражателем,
       F5/C                      G
Просто вышло так, что музыка всегда учила быть внимательным.
Asus2
     Хочешь, кем-то казаться, что ж — выбор за каждым,
F5/C                 G
    Но помни всякая чушь назад вернётся дважды.
N.C.
    Рад бы прекратить погоню за сутью,
   F5/C                           G             
Но суть внутри, и это значит, что я — это путь мой.
Asus2
     Отныне дороги сходятся чаще, чем было.
N.C.
    Банальность о судьбе саму себя опередила.


[Chorus]
(2:40 - 3:25)

A5                       C5
  Но даже если разбит асфальт,
                        G5
Устала сталь и проезда нет,
                        E5
Летят к новости опять в поисках,
                       A5
Пока есть ещё свежий след.
                       C5
Одиночная камера пыток,
                                          G5
Но ты не одинок в море бесплодных попыток.
                         E5
День за днём бой с огнём.
                             
Забываем себя там, куда идём.


(with main riff)

A5                       C5
  Но даже если разбит асфальт,
                        G5
Устала сталь и проезда нет,
                        E5
Летят к новости опять в поисках,
                       A5
Пока есть ещё свежий след.
                       C5
Одиночная камера пыток,
                                          G5
Но ты не одинок в море бесплодных попыток.
                         E5
День за днём бой с огнём.
                             N.C.
Забываем себя там, куда идём.


[Outro]
(3:26 - 3:48)

Main Riff:

                                                      Забываем себя       там, куда идём (x2)
  Asus2                                           F5/C                          G    
e|-----------------------|-----------------------|-----------------------|-----------------------|
B|---------0-------------|---------------0-------|---------0-------------|---------------0-------|
G|------2----------------|------------2----------|------2----------------|------------0----------|
D|---2-------------------|---------2-------------|---3-------------------|---------5-------------|
A|0----------------------|------0----------------|3----------------------|------5----------------|
E|-----------------------|-----------------------|-----------------------|-----------------------|(x3)
  1  &  2  &  3  &  4  &  1  &  2  &  3  &  4  &  1  &  2  &  3  &  4  &  1  &  2  &  3  &  4  &

  Asus2                                           F5/C                          G7m            
e|-----------------------|-----------------------|-----------------------|-----------------------|
B|---------0-------------|---------------0-------|---------0-------------|---------------3-------|
G|------2----------------|------------2----------|------2----------------|------------0----------|
D|---2-------------------|---------2-------------|---3-------------------|---------4-------------|
A|0----------------------|------0----------------|3----------------------|------5----------------|
E|-----------------------|-----------------------|-----------------------|-----------------------|(x1)
  1  &  2  &  3  &  4  &  1  &  2  &  3  &  4  &  1  &  2  &  3  &  4  &  1  &  2  &  3  &  4  &
Suggest correction
Creating personal tab
Creating personal tab
You can edit any tab online and save it as your Personal.

You can edit, replace or remove any tab part or add personal notes – all changes will be seen only by you.

Personal tabs can be accessed anytime from any device, even offline.
Learn more »
Give kudos to tab author, rate the tab!
1 2 3 4 5
comments
print report bad tab
guest
You may want to rate the tab now too:
select rating
Wanna post a correction for this tab? Suggest correction