Oops, an error
Loading. Please wait.

Без Донорской Крови tab

by MC 1.8
16 views 1 this week
no commentswrite comment
1 2 3 4 5
3 more votes to show rating
add to favorites
×
Save as Personal and add changes to this tab that will be seen only by you. Learn more ›
×
You can save this tab as Personal to edit and correct it or add notes. All changes will be seen only by you. Learn more »
launch autoscroll
font size
0
reset
how to read this tab
guitar tuner
edit
Autoscroll
slow
fast
+/-
esc
set tempo
stop
MC 1.8 - Без Донорской Крови
Tempo track: 184 bpm.
Bar's size: 4/4. 
Tab by Alex Fluffyman.
Tuning: standard (EADGBe)
No capo.


[Intro]
(0:00 - 0:09)

  bass
G|-----------------------|-----------------------|-----------------------|-----------------------|
D|------------------4----|-----------------------|------------------4----|-----------------------|
A|-----------------------|------------0-----0----|-----------------------|------------0-----0----|
E|2---------------------2|2-----2---------2-----0|2---------------------2|2-----2---------2-----0|(x2)
  1  &  2  &  3  &  4  &  1  &  2  &  3  &  4  &  1  &  2  &  3  &  4  &  1  &  2  &  3  &  4  &


[Verse 1 Riff]
(0:10 - 0:51)

  rhythm guitar
  F#5
  PM.                           PM.      PM.      PM.                           PM.      PM.
e|-----------------------|-----------------------|-----------------------|-----------------------|
B|-----------------------|-----------------------|-----------------------|-----------------------|
G|-----------------------|-----------------------|-----------------------|-----------------------|
D|4----------------------|------4--------4-------|4----------------------|------4--------4-------|
A|4----------------------|------4--------4-------|2----------------------|------4--------4-------|
E|2----------------------|------2--------2-------|2----------------------|------2--------2-------|(x8)
  1  &  2  &  3  &  4  &  1  &  2  &  3  &  4  &  1  &  2  &  3  &  4  &  1  &  2  &  3  &  4  &


[Verse 1]
(0:10 - 0:51)

F#5
Даже в школе преподают, что порядок родился из хаоса.
F#5
Споры фальцетом Микки-Мауса
F#5
О надвигающемся Апокалипсисе.
F#5
Хорошо, что телевизор уже годы не включается.
F#5
С ног валится электорат, щурится гад с трибуны.
F#5
Всё под контролем, брат, новый ряд законов просунут.
F#5
Эта практика — не тайная теория.
F#5
Заставь работать на себя правила своей территории.
F#5
Выхода нет, если искать только дверные ручки.
F#5
Паника затмевает рассудок, сгоняет тучи.
F#5
Штакеты стопками заштопают рваную глотку.
F#5
Война — колотый лёд, эмоции сбивают с толку.
F#5
Дальше больше — книги заменила DOTA.
F#5
Провожаем наших детей под плеть гнёта.
F#5
Стихи свободы в блокнотах нарциссов, пот высох,
F#5
И на повестке дня остался тот же самый вызов.


[Chorus Riff]
(0:52 - 1:02)

  lead guitar
e|14~--------------------|-----------------------/14~--------------------|-----------------------|
B|-----------------------|-----------------------/14~--------------------|-----------------------|
G|-----------------------|-----------------------|-----------------------|-----------------------|
D|-----------------------|-----------------------|-----------------------|-----------------------|
A|-----------------------|-----------------------|-----------------------|-----------------------|
E|-----------------------|-----------------------|-----------------------|-----------------------|
  1  &  2  &  3  &  4  &  1  &  2  &  3  &  4  &  1  &  2  &  3  &  4  &  1  &  2  &  3  &  4  &


e|-----------------------|-----------------------|-----------------------|-----------------------|
B|/14~-------------------|-----------------------|-----------------------|-----------------/14~--|
G|/14~-------------------|-----------------------/14~--------------------|-----------------/14~--|
D|-----------------------|-----------------------/16~--------------------|-----------------------|
A|-----------------------|-----------------------|-----------------------|-----------------------|
E|-----------------------|-----------------------|-----------------------|-----------------------|
  1  &  2  &  3  &  4  &  1  &  2  &  3  &  4  &  1  &  2  &  3  &  4  &  1  &  2  &  3  &  4  &


[Chorus]
(0:52 - 1:02)

N.C.
Остаться в живых, не утратив живое, —
Бой боли без лидокаина и донорской крови,
Вызов страху без подмены понятий,
Бег из ловушки разума, пока совсем не спятил.


[Verse 2 Riff]
(1:03 - 1:22)

e|-----------------------|-----------------------|-----------------------|-----------------/16~--|
B|/14~-------------------|-----------------/14~--/14~--------------------|-----------------/14~--|
G|/14~-------------------|-----------------/14~--/14~--------------------|-----------------------|
D|-----------------------|-----------------------|-----------------------|-----------------------|
A|-----------------------|-----------------------|-----------------------|-----------------------|
E|-----------------------|-----------------------|-----------------------|-----------------------|
  1  &  2  &  3  &  4  &  1  &  2  &  3  &  4  &  1  &  2  &  3  &  4  &  1  &  2  &  3  &  4  & |
                                                                                                 |(x2)
e|/16~-------------------|-----------------------|-----------------------|-----------------------|
B|/14~-------------------|-----------------/14~--/14~--------------------|-----------------/14~--|
G|-----------------------|-----------------/14~--/14~--------------------|-----------------/14~--|
D|-----------------------|-----------------------|-----------------------|-----------------------|
A|-----------------------|-----------------------|-----------------------|-----------------------|
E|-----------------------|-----------------------|-----------------------|-----------------------|
  1  &  2  &  3  &  4  &  1  &  2  &  3  &  4  &  1  &  2  &  3  &  4  &  1  &  2  &  3  &  4  &


[Verse 2 Riff]
(1:23 - 1:44)

  rhythm guitar
  F#5
  PM.                           PM.      PM.      PM.                           PM.      PM.
e|-----------------------|-----------------------|-----------------------|-----------------------|
B|-----------------------|-----------------------|-----------------------|-----------------------|
G|-----------------------|-----------------------|-----------------------|-----------------------|
D|4----------------------|------4--------4-------|4----------------------|------4--------4-------|
A|4----------------------|------4--------4-------|2----------------------|------4--------4-------|
E|2----------------------|------2--------2-------|2----------------------|------2--------2-------|(x4)
  1  &  2  &  3  &  4  &  1  &  2  &  3  &  4  &  1  &  2  &  3  &  4  &  1  &  2  &  3  &  4  &


[Verse 2]
(1:03 - 1:44)

N.C.
Осуждаешь не того же, тут всё машинально.
Порой живее то, что все считают маргинальным.
Лёд трещит, но лишь вера бежит по поверхности
В обход законов и правил, фальшивых любезностей.
Источник в самом сердце, под рёбрами крылья.
Этих людей уже поздно пугать, речи бессильны.
Никого не просили становится Спасителем:
Худшая философия в часы кровопролития.
F#5
Бойся таких же, как и ты, прошедших отчаяние,
F#5
Уставших верить обещаниям.
F#5
Изначально Бог, любовь, — демоны мутят рокировки,
F#5
Перемены мест слагаемых в ловкой уловке.
F#5
Мой брат, которому я рад в любой погоде,
F#5
Ловит «краба», зная, что мы с ним в одной колоде.
F#5
Никуда бежать, схемы никак не исправить,
F#5
Но жертвы слишком велики, чтобы так всё оставить


[Last Chorus Riff]
(1:45 - 1:55)

lead guitar  
delay.
  PM.--------------------------------------------------------------------------------------------|
e|-----------------------|-----------------------|-----------------------|-----------------------|
B|------------------2----|0----------------------|------------------2----|0----------------------|
G|------2-----1----------|------2-----1-----2----|------2-----1----------|------2-----1-----2----|
D|4----------------------|-----------------------|4----------------------|-----------------------|
A|-----------------------|-----------------------|-----------------------|-----------------------|
E|-----------------------|-----------------------|-----------------------|-----------------------|(x2)
  1  &  2  &  3  &  4  &  1  &  2  &  3  &  4  &  1  &  2  &  3  &  4  &  1  &  2  &  3  &  4  &


[Last Chorus]
(1:45 - 1:55)

N.C.
И остаться в живых, не утратив живое, —
Бой боли без лидокаина и донорской крови,
Вызов страху без подмены понятий,
Бег из ловушки разума, пока совсем не спятил.


[Outro]
(1:56 - 2:00)

lead guitar  
delay.
  PM.--------------------------------------------------------------------------------------------|
e|-----------------------|-----------------------|-----------------------|-----------------------|
B|------------------2----|0----------------------|------------------2----|0----------------------|
G|------2-----1----------|------2-----1-----2----|------2-----1----------|------2-----1-----2----|
D|4----------------------|-----------------------|4----------------------|-----------------------|
A|-----------------------|-----------------------|-----------------------|-----------------------|
E|-----------------------|-----------------------|-----------------------|-----------------------|(x1)
  1  &  2  &  3  &  4  &  1  &  2  &  3  &  4  &  1  &  2  &  3  &  4  &  1  &  2  &  3  &  4  &



************************************

| /   Slide up
| ~   Vibrato
| PM. palm mute

************************************

            
            
Suggest correction
Creating personal tab
Creating personal tab
You can edit any tab online and save it as your Personal.

You can edit, replace or remove any tab part or add personal notes – all changes will be seen only by you.

Personal tabs can be accessed anytime from any device, even offline.
Learn more »
Give kudos to tab author, rate the tab!
1 2 3 4 5
comments
print report bad tab
guest
You may want to rate the tab now too:
select rating
Wanna post a correction for this tab? Suggest correction