Oops, an error
Loading. Please wait.

Прожектор chords

by MC 1.8
19 views 1 this week
no commentswrite comment
1 2 3 4 5
3 more votes to show rating
add to favorites
×
Save as Personal and add changes to this tab that will be seen only by you. Learn more ›
×
You can save this tab as Personal to edit and correct it or add notes. All changes will be seen only by you. Learn more »
launch autoscroll
font size
0
reset
transpose
0
reset
simplify chords
display chords
guitar tuner
edit
Autoscroll
slow
fast
+/-
esc
set tempo
stop
Strumming
There is no strumming pattern for this song yet. and get +5 IQ
MC 1.8 - Прожектор
Tempo track: 150 bpm.
Bar's size: 4/4
Tuning: standard (EADGBe)
No Capo.
Chord's by Alex Fluffyman


Chord's diagram:

   Bm   Bsus2   D    E5     G     F#    A    F#5   G5     A5
e|-----|-----|-----|-----|-----|-----|-----|-----|-----|-----|
B|--3--|-----|--7--|-----|-----|-----|--2--|-----|-----|-----|
G|--4--|--4--|--7--|--4--|--4--|--3--|--2--|-----|-----|-----|
D|--4--|--4--|--7--|--2--|--5--|--4--|--2--|--4--|--5--|--7--|
A|--2--|--4--|--5--|--2--|--5--|--4--|--0--|--4--|--5--|--7--|
E|-----|--2--|-----|--0--|--3--|--2--|-----|--2--|--3--|--5--|


[Intro]
(0:00 - 0:13)

Bm   Bsus2   D     E5
Bm   Bsus2   D     E5


(Intro Melody)
(0:14 - 0:25)
  
  Bm
e|-----------------------|-----------------------|-----------------------|-----------------------|
B|-----------------------|-----------------------|-----------------------|-----------------------|
G|-----------------------|-----------------------|-----------------------|-----------/9----------|
D|9~---------------------|-----------/11---------|12~--------------------|-----------------------|
A|-----------------------|-----------------------|-----------------------|-----------------------|
E|-----------------------|-----------------------|-----------------------|-----------------------|
  1  &  2  &  3  &  4  &  1  &  2  &  3  &  4  &  1  &  2  &  3  &  4  &  1  &  2  &  3  &  4  & 

  G                                                              E5
e|-----------------------|-----------------------|-----------------------|-----------------------|
B|-----------------------|-----------------------|-----------------------|-----------------------|
G|/11~-------------------|----/12-----------11~--|-----------------------|-----------------------|
D|-----------------------|-----------------------|-----------------------|-----------12\---------|
A|-----------------------|-----------------------|-----------------------|-----------------------|
E|-----------------------|-----------------------|-----------------------|-----------------------|
  1  &  2  &  3  &  4  &  1  &  2  &  3  &  4  &  1  &  2  &  3  &  4  &  1  &  2  &  3  &  4  & 


[Verse 1]
(0:26 - 1:16)

(end melody on):

  Bm
e|-----|
B|-----|
G|-----|
D|9----|
A|-----|
E|-----|

Bm
  Прожектор выявляет страх быстро и точно.
                                         Bsus2
В новых отчётах царь видит себя на обочине.
                F#       
Деньги — удавка на шее кому-то,
                                E5
Кому-то всё, для меня горючее — литр в минуту.
Bm
  Календарь худеет, обесточенные души спят.
                                           Bsus2
Миссия года — стать электрическим как скат.
                  F# 
«Свет не покупается,» — ответит парень,
                                   E5
Продающий уныние в рифмах-конструкциях с перегаром.

Bm
  На поверхности барахтаемся, глубже страшно.
                                             Bsus2
По слухам даже чай таращит, как фен или гашик.
           F#
Живая среда однотонная в массе
                      E5
Редкую уникальную роль примет за кляксу.

(Мелодия из вступления играется здесь, вместе с основными аккордами)
 
Bm
  Боссы не ставят условий, якорь в Подмосковье,
                                        Bsus2
На капюшоне через трущобы снова и снова.
                                                 E5
Тачка покрылась пылью, пробки — душный могильник.
                F#5         G5   A5  
Оставляю в покое всех, ставлю будильник.


[Chorus]
(1:17 - 1:42)

Bm          Bsus2                 G
  И нет рецептов здесь, только знаки.
                         A      Bm
Весь этот мир, как лес, полон тёмных мест.
     D            G
Сигнала нет, нет GPS.
         A (5776)
Вера светит прожектором с небес.
Bm                             D
  Нет рецептов здесь, только знаки.
                               G
Весь этот мир, как лес, полон тёмных мест.
                  E5
Сигнала нет, нет GPS.
         F#5        G5        A5
Вера светит прожектором с небес.


[Verse 2]
(1:43 - 2:21)

Bm
  Слово Христа живо нечёткими едиными.
                                                   Bsus2
Куда мне до духовного роста, я так с простолюдинами.
                   F#
Реальность — для всех, правила — не для каждого.
                                  E5
Спешу дышать и жить, всё закончится однажды,

Bm
  Знаю это не так, поймал взгляд пристальный.
                                               Bsus2
Страшнее выглядеть глупо, чем быть неискренним.
                       F#
Легче ударить, чем держать удар.
                                              E5 
Легче пережить январь, чем отогреть в себе живую тварь.

(Мелодия из вступления играется здесь, вместе с основными аккордами)

Bm
  Ты прав, жизнь может вытянуть всё что угодно.
                                              Bsus2
Нытьё в этой стране никогда не выйдет из моды,
                                          E5
Но яркого света прожектора хватит на всех.
            F#5     G5       A5 
Отпускаю идею прорыва без помех.


[Chorus]
(2:22 - 2:46)

Bm          Bsus2                 G
  И нет рецептов здесь, только знаки.
                         A      Bm
Весь этот мир, как лес, полон тёмных мест.
     D            G
Сигнала нет, нет GPS.
         A (5776)
Вера светит прожектором с небес.
Bm                             D
  Нет рецептов здесь, только знаки.
                               G
Весь этот мир, как лес, полон тёмных мест.
                  E5
Сигнала нет, нет GPS.
         F#5        G5        A5
Вера светит прожектором с небес.


[Outro Chorus]
(2:47 - 3:10)

(Strings melody)

  Bm                      Bsus2                   G                                   A
e|------------7-----9----|10----14----9-----7----|------------7-----9----|10----14----9-----7----|
B|7-----7----------------|-----------------------|7-----7----------------|-----------------------|
G|-----------------------|-----------------------|-----------------------|-----------------------|
D|-----------------------|-----------------------|-----------------------|-----------------------|
A|-----------------------|-----------------------|-----------------------|-----------------------|
E|-----------------------|-----------------------|-----------------------|-----------------------|
  1  &  2  &  3  &  4  &  1  &  2  &  3  &  4  &  1  &  2  &  3  &  4  &  1  &  2  &  3  &  4  & 

  Bm                      D                       G                       A (5776)
e|------------7-----9----|10----14----9-----7----|------------7-----9----|10----14----9-----7----|
B|7-----7----------------|-----------------------|7-----7----------------|-----------------------|
G|-----------------------|-----------------------|-----------------------|-----------------------|
D|-----------------------|-----------------------|-----------------------|-----------------------|
A|-----------------------|-----------------------|-----------------------|-----------------------|
E|-----------------------|-----------------------|-----------------------|-----------------------|
  1  &  2  &  3  &  4  &  1  &  2  &  3  &  4  &  1  &  2  &  3  &  4  &  1  &  2  &  3  &  4  & 

  Bm                                              D 
e|------------7-----9----|10----14----9-----7----|------------7-----9----|10----14----9-----7----|
B|7-----7----------------|-----------------------|7-----7----------------|-----------------------|
G|-----------------------|-----------------------|-----------------------|-----------------------|
D|-----------------------|-----------------------|-----------------------|-----------------------|
A|-----------------------|-----------------------|-----------------------|-----------------------|
E|-----------------------|-----------------------|-----------------------|-----------------------|
  1  &  2  &  3  &  4  &  1  &  2  &  3  &  4  &  1  &  2  &  3  &  4  &  1  &  2  &  3  &  4  & 

  G                                               E5                      F#       G5       A5
e|------------7-----9----|10----14----9-----7----|------------7-----9----|10----14----9-----7----|
B|7-----7----------------|-----------------------|7-----7----------------|-----------------------|
G|-----------------------|-----------------------|-----------------------|-----------------------|
D|-----------------------|-----------------------|-----------------------|-----------------------|
A|-----------------------|-----------------------|-----------------------|-----------------------|
E|-----------------------|-----------------------|-----------------------|-----------------------|
  1  &  2  &  3  &  4  &  1  &  2  &  3  &  4  &  1  &  2  &  3  &  4  &  1  &  2  &  3  &  4  & 


[Outro Chorus]
(2:47 - 3:10)

Bm          Bsus2                 G
  И нет рецептов здесь, только знаки.
                         A      Bm
Весь этот мир, как лес, полон тёмных мест.
     D            G
Сигнала нет, нет GPS.
         A (5776)
Вера светит прожектором с небес.
Bm                             D
  Нет рецептов здесь, только знаки.
                               G
Весь этот мир, как лес, полон тёмных мест.
                  E5
Сигнала нет, нет GPS.
         F#5        G5        A5
Вера светит прожектором с небес.


[Outro]
(3:11 - 3:38)

(with intro melody)

Bm  Bsus2  G   A
Bm  D      G   A
Bm         D  
G          E5  
F#5  G5  A5

            
            
Suggest correction
Creating personal tab
Creating personal tab
You can edit any tab online and save it as your Personal.

You can edit, replace or remove any tab part or add personal notes – all changes will be seen only by you.

Personal tabs can be accessed anytime from any device, even offline.
Learn more »
Give kudos to tab author, rate the tab!
1 2 3 4 5
comments
print report bad tab
guest
You may want to rate the tab now too:
select rating
Wanna post a correction for this tab? Suggest correction