Oops, an error
Loading. Please wait.

Bara Darar Rusar In tab

version 2
version 2

Whole song

556 views 15 this week
no commentswrite comment
1 2 3 4 5
2 more votes to show rating
add to favorites
×
Save as Personal and add changes to this tab that will be seen only by you. Learn more ›
×
You can save this tab as Personal to edit and correct it or add notes. All changes will be seen only by you. Learn more »
launch autoscroll
font size
0
reset
how to read this tab
guitar tuner
edit
Autoscroll
slow
fast
+/-
esc
set tempo
stop
Håkan Hellström
Bara Dårar Rusar In
Ett kolikbarns bekännelser

I couldn't find any tabs of this song, not on Ultimate-Guitar, not anywhere on
the internet, but here we go.

The verse featured is the first verse, the others are slightly different, but
not by much.


[Intro]

   C   G   Am  F        C   G   F                   Dm      F      C   G   G

e|-0---3---0-------1----0---3--------1--1-3p0----0--1p0-----x------0---3---0-|
B|-1---0---1-------1----1---0--------1--1-----------3--3-1--1------1---0---1-|
G|-0---0---2---0-2-2----0---0---0-2--2--2-----2-----2-------2-0-2--0---0---0-|
D|-2---0---2-------3----2---0--------3--3-----------0-------3------2---0---2-|
A|-3---2---0------------3---2--------------------------------------3---2---3-|
E|-----3--------------------3------------------------------------------3-----|


[Verse]

  (G)     C      G      Am            F      C      G       F

e|------------0--------------0------------1------0---------------1--1-3p0---0|
B|------------1------0---------1----------1------1-----0h1-------1--1--------|
G|-------------------0-----------2---------------------0----0-2--2--2-----2--|
D|----------2------0----2----------2-----------2-----------------3--3--------|
A|---0-2--3-------------0--------0------3----3-------------------------------|
E|-3-------------3--------------------1-------------3------------------------|

   Dm      F       C    G    C

e|-1p0-----1-------0----3----0---------------------------------------------|
B|-3--3-1--1-------1----0----1---------------------------------------------|
G|-2-------2--0-2--0----0----0---------------------------------------------|
D|-0-------3-------2----0----2---------------------------------------------|
A|---------3-------3----2----3---------------------------------------------|
E|---------1------------3--------------------------------------------------|


[Solo]

e|-0---------------0-3-5--3--0-------------x-------------1p0----------0--3--0-|
B|----3-0-1---1h3---------------1-3-----0--1-1-3-1----1--3--3-1-------1--0--1-|
G|------------------------------------0----2-------2-----2-----2--0-2-0--0--0-|
D|-----------------------------------------3-------------0------------2--0--2-|
A|-----------------------------------------3--------------------------3--2--3-|
E|-----------------------------------------1-----------------------------3----|


************************************

| x   Dead note
| h   Hammer-on
| p   Pull-off


************************************
Suggest correction
Creating personal tab
Creating personal tab
You can edit any tab online and save it as your Personal.

You can edit, replace or remove any tab part or add personal notes – all changes will be seen only by you.

Personal tabs can be accessed anytime from any device, even offline.
Learn more »
Give kudos to tab author, rate the tab!
1 2 3 4 5
comments
print report bad tab
guest
You may want to rate the tab now too:
select rating
Wanna post a correction for this tab? Suggest correction