Oops, an error
Loading. Please wait.

Jag Vet Vilken Dy Hon Varit I chords

version 4
version 4

Whole song

466 views 9 this week
no commentswrite comment
1 2 3 4 5
x 6
add to favorites
×
Save as Personal and add changes to this tab that will be seen only by you. Learn more ›
×
You can save this tab as Personal to edit and correct it or add notes. All changes will be seen only by you. Learn more »
launch autoscroll
font size
0
reset
transpose
0
reset
display chords
guitar tuner
edit
Autoscroll
slow
fast
+/-
esc
set tempo
stop
Author
About this tab version
Added intro and outro tabs. Was this info helpful? Yes No
Strumming
There is no strumming pattern for this song yet. and get +5 IQ
(Tycker inte riktigt någon version är helt 100. Jag har gjort ett försök.
Försökte fixa intro och outro också. Lite osäker på outrot men introt låter nog ok.)

[Intro]
e|--------------------9--9------------------------12--------------|
B|---7----9----10-------7----9-----10-----12--12------------------|
G|----7-7--7-7---7-7---7------9-9----9-9----9---------------------|
D|-----7----7-----7------------9------9------9--------------------|
A|----------------------------------------------------------------|
E|----------------------------------------------------------------|

[Verse 1]
A 
    F#m        D       E
Hon är det här partyts ljus
        A
Och han bredvid 
      F#m
Är så stolt 
    D             E
att ha henne nära sig
    C#m            F#m
Det verkar som hon överlevt
C#m          F#m
Sen sist jag såg henne
D                  E
Hon kunde va någon annan, någon bättre

[Chorus 1]
       A   F#m  D
Om hon slöt ögonen
        E    A      F#m
Hon har bytt höghusen
D         E
Mot champagne
           C#m      F#m
Och hennes nya fina vänner
        C#m         F#m
Tror de vet var hon kommer från
       D
Jag är pojken i glasögon
        E
Hon var kär i en gång

[Verse 2]
           A         F#m
Hon känner inte igen mig
     D            E
Nej, åren har nog slitit
A          F#m        D
hårdare på mig så jag säger inget
E
Vill inte
C#m    F#m
Genera henne
            C#m  F#m
Men jag ska be honom
   D       C#m   Bm  A
Ta hand om henne väl
    E                           A
För jag vet vilken dy hon varit i
F#m   D     E
A     F#m   
D              E            C#m
Jag vet vilken dy hon varit i

[Instrumental]
F#m   
C#m    F#m   
D      D     
E      E     
D      D     
E      E     

[Verse 3]
           A         F#m
Hon känner inte igen mig
     D            E
Nej, åren har nog slitit
A          F#m        D
hårdare på mig så jag säger inget
E
Vill inte
C#m    F#m
Genera henne
    C#m    F#m
Jag hoppas han
    D            E
tar han om henne väl
    D            E
Tar hand om henne väl

[Outro]
e|------------------9-----------------------12----14----16------17------19(?)--| osv..
B|--7----9----10-------------9---10---12-------------15-----15------15---------| osv..
G|----7----7-----7----7---9----9----9------------------------------------------|
D|-----------------------------------------------------------------------------|
A|-----------------------------------------------------------------------------|
E|-----------------------------------------------------------------------------|
Suggest correction
Creating personal tab
Creating personal tab
You can edit any tab online and save it as your Personal.

You can edit, replace or remove any tab part or add personal notes – all changes will be seen only by you.

Personal tabs can be accessed anytime from any device, even offline.
Learn more »
comments
print report bad tab
guest
You may want to rate the tab now too:
select rating
Wanna post a correction for this tab? Suggest correction