Oops, an error
Loading. Please wait.

Step Out bass

151 views 1 this week
no commentswrite comment
1 2 3 4 5
3 more votes to show rating
add to favorites
×
Save as Personal and add changes to this tab that will be seen only by you. Learn more ›
×
You can save this tab as Personal to edit and correct it or add notes. All changes will be seen only by you. Learn more »
launch autoscroll
font size
0
reset
guitar tuner
edit
Autoscroll
slow
fast
+/-
esc
set tempo
stop
Author
Jose Gonzalez
“Step Out”
Single – Step Out (Walter Mitty) (2013)

Standard Tuning (EADG)

So I think the guitar plays this tuned a half step
down, but no need to hassle re-tuning for the bass.
I tabbed this out by ear so it might not be perfect,
but it plays!
~Jeyqwop


Intro:
(0:00-0:23)
  1 ^ ^ ^ 2 ^ ^ ^ 3 ^ ^ ^ 4 ^ ^ ^   1 ^ ^ ^ 2 ^ ^ ^ 3 ^ ^ ^ 4 ^ ^ ^
|---------------------------------|---------------------------------|
|---------------------------------|---------------------------------|
|-6~~~~~~~~~~~~~~~~~~~~~~~~~~~~~~~~~~~~~~~~~~~~~~~~~~~~~~~~~~~~~~~--|
|---------------------------------|---------------------------------|

  1 ^ ^ ^ 2 ^ ^ ^ 3 ^ ^ ^ 4 ^ ^ ^   1 ^ ^ ^ 2 ^ ^ ^ 3 ^ ^ ^ 4 ^ ^ ^
|---------------------------------|---------------------------------|
|---------------------------------|---------------------------------|
|-6---6---6---6---6---6---6---6---|-6---6---6---6---6---6---6---6---|
|---------------------------------|---------------------------------|

  1 ^ ^ ^ 2 ^ ^ ^ 3 ^ ^ ^ 4 ^ ^ ^   1 ^ ^ ^ 2 ^ ^ ^ 3 ^ ^ ^ 4 ^ ^ ^
|---------------------------------|---------------------------------|
|---------------------------------|---------------------------------|
|-6---6---6---6---6---6---6---6---|-6-6-6-6-6-6-6-6-6-6-6-6-6-6-6-6-|
|---------------------------------|---------------------------------|


Chorus:
(0:23-1:09)
  1 ^ ^ ^ 2 ^ ^ ^ 3 ^ ^ ^ 4 ^ ^ ^   1 ^ ^ ^ 2 ^ ^ ^ 3 ^ ^ ^ 4 ^ ^ ^
|---------------------------------|---------------------------------|
|---------------------------------|---------------------------------|
|-3-3-3-3-3-3-3-3-3-3-3-3-3-3-3-3-|---------------------------------|
|---------------------------------|-6-6-6-6-6-6-6-6-6-6-6-6-6-6-6-6-|

  1 ^ ^ ^ 2 ^ ^ ^ 3 ^ ^ ^ 4 ^ ^ ^   1 ^ ^ ^ 2 ^ ^ ^ 3 ^ ^ ^ 4 ^ ^ ^
|---------------------------------|---------------------------------|
|---------------------------------|---------------------------------|
|---------------------------------|-6-6-6-6-6-6-6-6-5-5-5-5-5-5-5-5-|
|-4-4-4-4-4-4-4-4-4-4-4-4-4-4-4-4-|---------------------------------|

  1 ^ ^ ^ 2 ^ ^ ^ 3 ^ ^ ^ 4 ^ ^ ^   1 ^ ^ ^ 2 ^ ^ ^ 3 ^ ^ ^ 4 ^ ^ ^
|---------------------------------|---------------------------------|
|---------------------------------|-----------------8-8-8-8-8-8-8-8-|
|-3-3-3-3-3-3-3-3-3-3-3-3-3-3-3-3-|-1-1-1-1-1-1-1///----------------|
|---------------------------------|---------------------------------|

  1 ^ ^ ^ 2 ^ ^ ^ 3 ^ ^ ^ 4 ^ ^ ^   1 ^ ^ ^ 2 ^ ^ ^ 3 ^ ^ ^ 4 ^ ^ ^
|---------------------------------|---------------------------------|
|---------------------------------|---------------------------------|
|---------------------------------|-6-6-6-6-6-6-6-6-5-5-5-5-5-5-5-5-|
|-4-4-4-4-4-4-4-4-4-4-4-4-4-4-4-4-|---------------------------------|

  1 ^ ^ ^ 2 ^ ^ ^ 3 ^ ^ ^ 4 ^ ^ ^   1 ^ ^ ^ 2 ^ ^ ^ 3 ^ ^ ^ 4 ^ ^ ^
|---------------------------------|---------------------------------|
|---------------------------------|---------------------------------|
|---------------------------------|---------------------------------|
|-4-4-4-4-4-4-4-4-4-4-4-4-4-4-4-4-|-5-5-5-5-5-5-5-5-5-5-5-5-5-5-5-5-|

  1 ^ ^ ^ 2 ^ ^ ^ 3 ^ ^ ^ 4 ^ ^ ^   1 ^ ^ ^ 2 ^ ^ ^ 3 ^ ^ ^ 4 ^ ^ ^
|---------------------------------|---------------------------------|
|---------------------------------|/8-8-8-8-8-8-8-8-8-8-8-8-8-8-8-8-|
|---------------------------------|---------------------------------|
|-6-6-6-6-6-6-6-6-6-6-6-6-6-6-6-6-|---------------------------------|

  1 ^ ^ ^ 2 ^ ^ ^ 3 ^ ^ ^ 4 ^ ^ ^   1 ^ ^ ^ 2 ^ ^ ^ 3 ^ ^ ^ 4 ^ ^ ^
|---------------------------------|---------------------------------|
|---------------------------------|---------------------------------|
|---------------------------------|---------------------------------|
|-1-1-1-1-1-1-1-1-1-1-1-1-1-1-1-1-|-4-4-4-4-4-4-4-4-4-4-4-4-4-4-4-4-|


Verse:
(1:09-1:29)
  1 ^ ^ ^ 2 ^ ^ ^ 3 ^ ^ ^ 4 ^ ^ ^   1 ^ ^ ^ 2 ^ ^ ^ 3 ^ ^ ^ 4 ^ ^ ^
|---------------------------------|---------------------------------|
|---------------------------------|---------------------------------|
|-6~~~~~~~~~~~~~~~~~~~~~~~~~~~~~~-|---------------------------------|
|---------------------------------|-1~~~~~~~~~~~~~~~~~~~~~~~~~~~~~~-|

  1 ^ ^ ^ 2 ^ ^ ^ 3 ^ ^ ^ 4 ^ ^ ^   1 ^ ^ ^ 2 ^ ^ ^ 3 ^ ^ ^ 4 ^ ^ ^
|---------------------------------|---------------------------------|
|---------------------------------|---------------------------------|
|---------------------------------|---------------------------------|
|-4~~~~~~~~~~~~~~~~~~~~~~~~~~~~~~-|-1~~~~~~~~~~~~~~~~~~~~~~~~~~~~~~-|

  1 ^ ^ ^ 2 ^ ^ ^ 3 ^ ^ ^ 4 ^ ^ ^   1 ^ ^ ^ 2 ^ ^ ^ 3 ^ ^ ^ 4 ^ ^ ^
|---------------------------------|---------------------------------|
|---------------------------------|---------------------------------|
|-6~~~~~~~~~~~~~~~~~~~~~~~~~~~~~~-|---------------------------------|
|---------------------------------|-1~~~~~~~~~~~~~~~~~~~~~~~~~~~~~~-|
        

Chorus:
(1:29-1:59)
  1 ^ ^ ^ 2 ^ ^ ^ 3 ^ ^ ^ 4 ^ ^ ^   1 ^ ^ ^ 2 ^ ^ ^ 3 ^ ^ ^ 4 ^ ^ ^
|---------------------------------|---------------------------------|
|---------------------------------|---------------------------------|
|-3-3-3-3-3-3-3-3-3-3-3-3-3-3-3-3-|---------------------------------|
|---------------------------------|-6-6-6-6-6-6-6-6-6-6-6-6-6-6-6-6-|

  1 ^ ^ ^ 2 ^ ^ ^ 3 ^ ^ ^ 4 ^ ^ ^   1 ^ ^ ^ 2 ^ ^ ^ 3 ^ ^ ^ 4 ^ ^ ^
|---------------------------------|---------------------------------|
|---------------------------------|---------------------------------|
|---------------------------------|-6-6-6-6-6-6-6-6-5-5-5-5-5-5-5-5-|
|-4-4-4-4-4-4-4-4-4-4-4-4-4-4-4-4-|---------------------------------|

  1 ^ ^ ^ 2 ^ ^ ^ 3 ^ ^ ^ 4 ^ ^ ^   1 ^ ^ ^ 2 ^ ^ ^ 3 ^ ^ ^ 4 ^ ^ ^
|---------------------------------|---------------------------------|
|---------------------------------|-----------------8-8-8-8-8-8-8-8-|
|-3-3-3-3-3-3-3-3-3-3-3-3-3-3-3-3-|-1-1-1-1-1-1-1///----------------|
|---------------------------------|---------------------------------|

  1 ^ ^ ^ 2 ^ ^ ^ 3 ^ ^ ^ 4 ^ ^ ^   1 ^ ^ ^ 2 ^ ^ ^ 3 ^ ^ ^ 4 ^ ^ ^
|---------------------------------|---------------------------------|
|---------------------------------|---------------------------------|
|---------------------------------|-6-6-6-6-6-6-6-6-5-5-5-5-5-5-5-5-|
|-4-4-4-4-4-4-4-4-4-4-4-4-4-4-4-4-|---------------------------------|

  1 ^ ^ ^ 2 ^ ^ ^ 3 ^ ^ ^ 4 ^ ^ ^
|---------------------------------|
|---------------------------------|
|-3-3-3-3-3-3-3-3-3-3-3-3-3-3-3-3-|
|---------------------------------|


Interlude:
(1:59-2:45)
  1 ^ ^ ^ 2 ^ ^ ^ 3 ^ ^ ^ 4 ^ ^ ^   1 ^ ^ ^ 2 ^ ^ ^ 3 ^ ^ ^ 4 ^ ^ ^
|---------------------------------|---------------------------------|
|---------------------------------|---------------------------------|
|-3-3-----3-------3-------3-------|---------------------------------|
|---------------------------------|-6-------6-------6-------6-------|

  1 ^ ^ ^ 2 ^ ^ ^ 3 ^ ^ ^ 4 ^ ^ ^   1 ^ ^ ^ 2 ^ ^ ^ 3 ^ ^ ^ 4 ^ ^ ^
|---------------------------------|---------------------------------|
|---------------------------------|---------------------------------|
|---------------------------------|-6-------6-------5-------5-------|
|-4-------4-------4-------4-------|---------------------------------|

  1 ^ ^ ^ 2 ^ ^ ^ 3 ^ ^ ^ 4 ^ ^ ^   1 ^ ^ ^ 2 ^ ^ ^ 3 ^ ^ ^ 4 ^ ^ ^
|---------------------------------|---------------------------------|
|---------------------------------|---------------------------------|
|-3-------3-------3-------3-------|---------------------------------|
|---------------------------------|-6-------6-------6-------6-------|

  1 ^ ^ ^ 2 ^ ^ ^ 3 ^ ^ ^ 4 ^ ^ ^   1 ^ ^ ^ 2 ^ ^ ^ 3 ^ ^ ^ 4 ^ ^ ^
|---------------------------------|---------------------------------|
|---------------------------------|---------------------------------|
|---------------------------------|-6-------6-------5-------5-------|
|-4-------4-------4-------4-------|---------------------------------|

  1 ^ ^ ^ 2 ^ ^ ^ 3 ^ ^ ^ 4 ^ ^ ^   1 ^ ^ ^ 2 ^ ^ ^ 3 ^ ^ ^ 4 ^ ^ ^
|---------------------------------|---------------------------------|
|---------------------------------|---------------------------------|
|-6-------6-------6-------6-------|---------------------------------|
|---------------------------------|-1-------1-------1-------1-------|

  1 ^ ^ ^ 2 ^ ^ ^ 3 ^ ^ ^ 4 ^ ^ ^   1 ^ ^ ^ 2 ^ ^ ^ 3 ^ ^ ^ 4 ^ ^ ^
|---------------------------------|---------------------------------|
|---------------------------------|---------------------------------|
|---------------------------------|---------------------------------|
|-4-------4-------4-------4-------|-1-------1-------1-------1-------|

  1 ^ ^ ^ 2 ^ ^ ^ 3 ^ ^ ^ 4 ^ ^ ^   1 ^ ^ ^ 2 ^ ^ ^ 3 ^ ^ ^ 4 ^ ^ ^
|---------------------------------|---------------------------------|
|---------------------------------|---------------------------------|
|-6-------6-------6-------6-------|---------------------------------|
|---------------------------------|-1-------1-------1-------1-------|


Outro:
(2:45-4:01)
  1 ^ ^ ^ 2 ^ ^ ^ 3 ^ ^ ^ 4 ^ ^ ^   1 ^ ^ ^ 2 ^ ^ ^ 3 ^ ^ ^ 4 ^ ^ ^
|---------------------------------|---------------------------------|
|---------------------------------|---------------------------------|
|-3-------3-------3-------3---6---|-----------------------------6---|
|---------------------------------|-6-------6-------6-------6-------|

  1 ^ ^ ^ 2 ^ ^ ^ 3 ^ ^ ^ 4 ^ ^ ^   1 ^ ^ ^ 2 ^ ^ ^ 3 ^ ^ ^ 4 ^ ^ ^
|---------------------------------|---------------------------------|
|---------------------------------|---------------------------------|
|-----------------------------6---|-6-------6-------5-------5-------|
|-4-------4-------4-------4-------|---------------------------------|

  1 ^ ^ ^ 2 ^ ^ ^ 3 ^ ^ ^ 4 ^ ^ ^   1 ^ ^ ^ 2 ^ ^ ^ 3 ^ ^ ^ 4 ^ ^ ^
|---------------------------------|---------------------------------|
|-10~~~~~~~~~~~~~~~~~~~~~~~~~~~~~-|-8~~~~~~~~~~~~~~~~~~~~~~~~~~~~~~-|
|---------------------------------|---------------------------------|
|---------------------------------|---------------------------------|

  1 ^ ^ ^ 2 ^ ^ ^ 3 ^ ^ ^ 4 ^ ^ ^   1 ^ ^ ^ 2 ^ ^ ^ 3 ^ ^ ^ 4 ^ ^ ^
|---------------------------------|---------------------------------|
|-6~~~~~~~~~~~~~~~~~~~~~~~~~~~~~~-|---------------------------------|
|---------------------------------|-6~~~~~~~~~~~~~~-5~~~~~~~~~~~~~~-|
|---------------------------------|---------------------------------|

  1 ^ ^ ^ 2 ^ ^ ^ 3 ^ ^ ^ 4 ^ ^ ^   1 ^ ^ ^ 2 ^ ^ ^ 3 ^ ^ ^ 4 ^ ^ ^
|---------------------------------|---------------------------------|
|---------------------------------|---------------------------------|
|---------------------------------|---------------------------------|
|-4-4-4-4-4-4-4-4-4-4-4-4-4-4-4-4-|-4-4-4-4-4-4-4-4-4-4-4-4-4-4-4-4-|

  1 ^ ^ ^ 2 ^ ^ ^ 3 ^ ^ ^ 4 ^ ^ ^   1 ^ ^ ^ 2 ^ ^ ^ 3 ^ ^ ^ 4 ^ ^ ^
|---------------------------------|---------------------------------|
|---------------------------------|---------------------------------|
|-6-6-6-6-6-6-6-6-6-6-6-6-6-6-6-6-|-5-5-5-5-5-5-5-5-5-5-5-5-5-5-5-5-|
|---------------------------------|---------------------------------|

  1 ^ ^ ^ 2 ^ ^ ^ 3 ^ ^ ^ 4 ^ ^ ^   1 ^ ^ ^ 2 ^ ^ ^ 3 ^ ^ ^ 4 ^ ^ ^
|---------------------------------|---------------------------------|
|---------------------------------|---------------------------------|
|---------------------------------|---------------------------------|
|-4-4-4-4-4-4-4-4-4-4-4-4-4-4-4-4-|-5-5-5-5-5-5-5-5-5-5-5-5-5-5-5-5-|

  1 ^ ^ ^ 2 ^ ^ ^ 3 ^ ^ ^ 4 ^ ^ ^   1 ^ ^ ^ 2 ^ ^ ^ 3 ^ ^ ^ 4 ^ ^ ^
|---------------------------------|---------------------------------|
|---------------------------------|/8-8-8-8-8-8-8-8-8-8-8-8-8-8-8-8-|
|---------------------------------|---------------------------------|
|-6-6-6-6-6-6-6-6-6-6-6-6-6-6-6-6-|---------------------------------|

  1 ^ ^ ^ 2 ^ ^ ^ 3 ^ ^ ^ 4 ^ ^ ^   1 ^ ^ ^ 2 ^ ^ ^ 3 ^ ^ ^ 4 ^ ^ ^
|---------------------------------|---------------------------------|
|---------------------------------|---------------------------------|
|---------------------------------|---------------------------------|
|-1-1-1-1-1-1-1-1-1-1-1-1-1-1-1-1-|-4-4-4-4-4-4-4-4-4-4-4-4-4-4-4-4-|

  1 ^ ^ ^ 2 ^ ^ ^ 3 ^ ^ ^ 4 ^ ^ ^   1 ^ ^ ^ 2 ^ ^ ^ 3 ^ ^ ^ 4 ^ ^ ^
|---------------------------------|---------------------------------|
|---------------------------------|---------------------------------|
|-6~~~~~~~~~~~~~~~~~~~~~~~~~~~~~~~~~~~~~~~~~~~~~~~~~~~~~~~~~~~~~~~~-|
|---------------------------------|---------------------------------|

            
            
Suggest correction
Creating personal tab
Creating personal tab
You can edit any tab online and save it as your Personal.

You can edit, replace or remove any tab part or add personal notes – all changes will be seen only by you.

Personal tabs can be accessed anytime from any device, even offline.
Learn more »
Give kudos to tab author, rate the tab!
1 2 3 4 5
comments
print report bad tab
guest
You may want to rate the tab now too:
select rating
Wanna post a correction for this tab? Suggest correction