Oops, an error
Loading. Please wait.

Сrystalised intro tab

142 views 3 this week
no commentswrite comment
1 2 3 4 5
3 more votes to show rating
add to favorites
×
Save as Personal and add changes to this tab that will be seen only by you. Learn more ›
×
You can save this tab as Personal to edit and correct it or add notes. All changes will be seen only by you. Learn more »
launch autoscroll
font size
0
reset
how to read this tab
guitar tuner
edit
Autoscroll
slow
fast
+/-
esc
set tempo
stop
Author
Difficulty
Unregistered
About this tab version
Well it is different because there isn't any other way written that isn't in tab (at least in this website) so cheers. Was this info helpful? Yes No
[Intro]

e|--------------------------------|------------------------------|
B|--------------------------------|------------------------------|
G|--------------------------------|------------------------------|
D|--------------------------------|------------------------------|
A|---9-9-8-1-4-4-4-5-7-5-7--------|--9-9-8-1-4-4-4-5-7-5-7-------|
E|-7-----------------------7--7/10|-7---------------------7--7/10|

and then

you've applied the pressure... to have me crystallized

e|-----------------|---------------------|
B|-----------------|---------------------|
G|-----------------|---------------------|
D|-----------------|---------------------|
A|-----------------|---------------------|
E|-7-7-7-7-7-7-7-7-|-10-10-10-10-9-9-9-9-|


[Chorus]

  and then you repeat like that until the "ahh,ahh,ahh,ahh,ahh"(you know that part that gives you the gooses)
  that's when you switch to the dank

e|----------|------|------|
B|----------|------|------|
G|----------|------|------|
D|----------|------|------| (I believe that this part is done twice)
A|-7-7-7-7-7|-5-5-5|-4-4-4|
E|7-7-7-7-7-|5-5-5-|4-4-4-|

then you repeat back into the part where 2-D seems a bit sad, but hey if you've gotten here you can just keep 
doing the same thing 'till the end


************************************

| /  Slide up

************************************

            
            
Suggest correction
Creating personal tab
Creating personal tab
You can edit any tab online and save it as your Personal.

You can edit, replace or remove any tab part or add personal notes – all changes will be seen only by you.

Personal tabs can be accessed anytime from any device, even offline.
Learn more »
Give kudos to tab author, rate the tab!
1 2 3 4 5
comments
print report bad tab
guest
Wanna post a correction for this tab? Suggest correction