Oops, an error
Loading. Please wait.

인키 - 떠나야할 그사람 tab

127 views 1 this week
no commentswrite comment
1 2 3 4 5
3 more votes to show rating
add to favorites
×
Save as Personal and add changes to this tab that will be seen only by you. Learn more ›
×
You can save this tab as Personal to edit and correct it or add notes. All changes will be seen only by you. Learn more »
launch autoscroll
font size
0
reset
how to read this tab
guitar tuner
edit
Autoscroll
slow
fast
+/-
esc
set tempo
stop
Author
Difficulty
About this tab version
Playable fingerstyle arrangement of the song. Was this info helpful? Yes No
떠나야할 그사람
INKI
Signal OST
Capo 3



     E  E  E  E  Q    Q       E  E  E  E  Q    Q       E  E  E  E  Q    Q     
e|------------------------|------------------------|------------------------|
B|-----------0--1----0----|-----------0--1----0----|-----------0--1----0----|
G|--2-----2---------------|--------2---------------|--------2---------------|
D|-----2------------------|-----2------------------|-----2------------------|
A|--0---------------------|------------------------|------------------------|
E|------------------------|--3---------------------|--1---------------------|


    E  E  Q    E  E  Q       E  E  E  E  Q    Q       E  E  E  E  Q    Q     
e|------------------------|------------------------|------------------------|
B|--------1----------0----|-----------0--1----0----|-----------0--1----0----|
G|--------2----------2----|--2-----2---------------|--------2---------------|
D|-----2----------2-------|-----2------------------|-----2------------------|
A|--0---------------------|--0---------------------|------------------------|
E|-------------3----------|------------------------|--3---------------------|


                                              ^                         
    E  E  E  E  Q    Q       E  E  Q    E  E  Q       W                 
e|------------------------|-------------------0----|--L----------------|
B|-----------0--1----0----|--------1----------1----|--L----------------|
G|--------2---------------|--------2----------2----|--L----------------|
D|-----2------------------|-----2----------2-------|-------------------|
A|------------------------|--0---------------------|-------------------|
E|--1---------------------|-------------3----------|-------------------|


    E  E  E  E  E  E  E  E     E  H        E  E  E  E     E  E  E  E  Q    E  E   
e|--------------------------|--------------------------|--0--0-----0-------------|
B|-----------0--1--1-----0--|--1--1-----------L--1--3--|--------------3----3-----|
G|--2-----2-----------------|--------------------------|----------------------2--|
D|-----2--------------------|--------------------------|-------------------------|
A|--0-----------------0-----|--------------------------|-------------------------|
E|--------------------------|--3-----------3-----------|--1-----1-----1----------|


    E  E  Q    E  E  Q       E  E  E  E  E  E  E  E     E  H        E  E  E  E   
e|------------------------|--------------------------|--------------------------|
B|--------1----------0----|-----------0--1--1-----0--|--1--1-----------L--1--3--|
G|--------2----------2----|--2-----2-----------------|--------------------------|
D|-----2----------2-------|-----2--------------------|--------------------------|
A|--0---------------------|--0-----------------0-----|--------------------------|
E|-------------3----------|--------------------------|--3-----------3-----------|


    E  E  E  E  Q    E  E     E  E  Q    E  E  Q       E  E  E  E  E  E  E  E   
e|--0--0-----0-------------|------------------------|--------------------------|
B|--------------3----3-----|--------1----------0----|-----------0--0--0--0-----|
G|----------------------2--|--------2----------2----|--------0-----0-----------|
D|-------------------------|-----2----------2-------|-----0-----0-----------0--|
A|-------------------------|--0---------------------|--------------------------|
E|--1-----1-----1----------|-------------3----------|--3-----------------------|


    E  E  Q    Q    E  E     E  E  E  E  Q    E  E     E  E  E  E  H         
e|------------------------|-------------------------|--0--------------------|
B|-----0--1---------0--1--|--3-----------3----1--3--|--------------0--------|
G|--2----------2----------|--------0-----0----------|-----------1-----------|
D|--------2---------2-----|-----0-----0----------0--|--------2--------------|
A|--3---------------------|-------------------------|-----2-----------------|
E|------------------------|--3----------------------|--0--------------------|


    Q    E  E  E  E  E  E     E  H        E  E  E  E     E  E  E  E  Q    E  E   
e|-------------------------|--------------------------|--0--0-----0-------------|
B|----------0--1--1-----0--|--1--1-----------L--1--3--|--------------3----3-----|
G|-------2-----------------|--------------------------|----------------------2--|
D|-------------------------|--------------------------|-------------------------|
A|-------------------0-----|--------------------------|-------------------------|
E|-------------------------|--3-----------3-----------|--1-----1-----1----------|


    E  E  Q    E  E  Q       E  E  E  E  E  E  E  E     E  H        E  E  E  E   
e|------------------------|--------------------------|--------------------------|
B|--------1----------0----|-----------0--1--1-----0--|--1--1-----------L--1--3--|
G|--------2----------2----|--2-----2-----------------|--------------------------|
D|-----2----------2-------|-----2--------------------|--------------------------|
A|--0---------------------|--0-----------------0-----|--------------------------|
E|-------------3----------|--------------------------|--3-----------3-----------|


    E  E  E  E  Q    E  E     E  E  Q    E  E  Q       E  E  E  E  E  E  E  E   
e|--0--0-----0-------------|------------------------|--------------------------|
B|--------------3----3-----|--------1----------0----|-----------0--0--0--0-----|
G|----------------------2--|--------2----------2----|--------0-----0-----------|
D|-------------------------|-----2----------2-------|-----0-----0-----------0--|
A|-------------------------|--0---------------------|--------------------------|
E|--1-----1-----1----------|-------------3----------|--3-----------------------|


    E  E  Q    Q    E  E     E  E  E  E  Q    E  E     E  E  E  E  H         
e|------------------------|-------------------------|--0--------------------|
B|-----0--1---------0--1--|--3-----------3----1--3--|--------------0--------|
G|--2----------2----------|--------0-----0----------|-----------1-----------|
D|--------2---------2-----|-----0-----0----------0--|--------2--------------|
A|--3---------------------|-------------------------|-----2-----------------|
E|------------------------|--3----------------------|--0--------------------|


    E  E  E  E  E  E  Q       Q    E  E  E  E  E  E     E  E  E  E  E  E  Q     
e|-----0-----0-------------|-------5--7--8--7--5--3--|-------------------------|
B|--1-----------3-----3----|--1----------------------|--0--0-----0-------------|
G|-------------------------|-------------------------|--------------2-----2----|
D|-------------------------|-------------------------|-------------------------|
A|--3-----3--------3-------|-------------------------|-------------------------|
E|-------------------------|-------------------------|--3-----3--------3-------|


    W                   H.           E  E     E  H        E  E  E   
e|-------------------|---------------------|-----------------------|
B|-------------------|---------------------|-----------------1--3--|
G|--0----------------|--2------------2--0--|--2--2-----------------|
D|-------------------|---------------------|-----------------------|
A|-------------------|--0------------------|-----------------------|
E|-------------------|---------------------|--3--------------------|


    Q    E  E  Q    E  E     E  H.           E     E  H        E  E  E   
e|--0----0--1--3----1--0--|--3--3---------------|--1--1-----------5--3--|
B|------------------------|---------------------|-----------------------|
G|------------------------|---------------------|-----------------------|
D|------------------------|---------------------|-----------------------|
A|------------------------|---------------------|--0--------------------|
E|--1---------------------|--0------------------|-----------------------|


    H.           E  E     Q    Q    E  Q.        W                 
e|--1------------1--1--|--0----0----0---------|--0----------------|
B|---------------------|---------------3------|-------------------|
G|---------------------|----------------------|-------------------|
D|---------------------|----------------------|-------------------|
A|---------------------|----------------------|-------------------|
E|--3------------------|--1-------------------|--0----------------|


    Q    E  E  E  E  E  E     E  H        E  E  E  E     E  E  E  E  Q    E  E   
e|-------------------------|--------------------------|--0--0-----0-------------|
B|----------0--1--1-----0--|--1--1-----------L--1--3--|--------------3----3-----|
G|-------2-----------------|--------------------------|----------------------2--|
D|-------------------------|--------------------------|-------------------------|
A|-------------------0-----|--------------------------|-------------------------|
E|-------------------------|--3-----------3-----------|--1-----1-----1----------|


    E  E  Q    E  E  Q       E  E  E  E  E  E  E  E     E  H        E  E  E  E   
e|------------------------|--------------------------|--------------------------|
B|--------1----------0----|-----------0--1--1-----0--|--1--1-----------L--1--3--|
G|--------2----------2----|--2-----2-----------------|--------------------------|
D|-----2----------2-------|-----2--------------------|--------------------------|
A|--0---------------------|--0-----------------0-----|--------------------------|
E|-------------3----------|--------------------------|--3-----------3-----------|


    E  E  E  E  Q    E  E     E  E  Q    E  E  Q       E  E  E  E  E  E  E  E   
e|--0--0-----0-------------|------------------------|--------------------------|
B|--------------3----3-----|--------1----------0----|-----------0--0--0--0-----|
G|----------------------2--|--------2----------2----|--------0-----0-----------|
D|-------------------------|-----2----------2-------|-----0-----0-----------0--|
A|-------------------------|--0---------------------|--------------------------|
E|--1-----1-----1----------|-------------3----------|--3-----------------------|


    E  E  Q    Q    E  E     E  E  E  E  Q    E  E     E  E  E  E  H         
e|------------------------|-------------------------|--0--------------------|
B|-----0--1---------0--1--|--3-----------3----1--3--|--------------0--------|
G|--2----------2----------|--------0-----0----------|-----------1-----------|
D|--------2---------2-----|-----0-----0----------0--|--------2--------------|
A|--3---------------------|-------------------------|-----2-----------------|
E|------------------------|--3----------------------|--0--------------------|


    H        E  Q    E     H        E  Q    E     H        E  Q    E   
e|--0--------0--0----0--|--3--------3--3----3--|--5--------5--5----5--|
B|----------------------|----------------------|----------------------|
G|----------------------|--0-------------------|----------------------|
D|----------------------|----------------------|--7-------------------|
A|----------------------|----------------------|----------------------|
E|--0-------------------|----------------------|----------------------|


    Q    E  E  Q    E  E     H        E  Q    E     H        E  Q    E   
e|--8----8--8--7----7--7--|--0--------0--0----0--|--3--------3--3----3--|
B|------------------------|----------------------|----------------------|
G|--5----------4----------|----------------------|--0-------------------|
D|------------------------|----------------------|----------------------|
A|------------------------|----------------------|----------------------|
E|------------------------|--0-------------------|----------------------|


    H        E  Q    E     Q    E  E   Q     E   E     H.           E  E   
e|--5--------5--5----5--|--8----8--8--10----10--10--|---------------------|
B|----------------------|---------------------------|---------------------|
G|----------------------|--5-----------7------------|--2------------2--0--|
D|--7-------------------|---------------------------|---------------------|
A|----------------------|---------------------------|--0------------------|
E|----------------------|---------------------------|---------------------|


    E  H        E  E  E     Q    E  E  Q    E  E     E  H.           E   
e|-----------------------|--0----0--1--3----1--0--|--3--3---------------|
B|-----------------1--3--|------------------------|---------------------|
G|--2--2-----------------|------------------------|---------------------|
D|-----------------------|------------------------|---------------------|
A|-----------------------|------------------------|---------------------|
E|--3--------------------|--1---------------------|--0------------------|


    E  H        E  E  E     H.           E  E     Q    Q    E  Q.      
e|--1--1-----------5--3--|--1------------1--1--|--0----0----0---------|
B|-----------------------|---------------------|---------------3------|
G|-----------------------|---------------------|----------------------|
D|-----------------------|---------------------|----------------------|
A|--0--------------------|---------------------|----------------------|
E|-----------------------|--3------------------|--1-------------------|


    W                   Q    E  E  E  E  E  E     E  H        E  E  E  E   
e|--0----------------|-------------------------|--------------------------|
B|-------------------|----------0--1--1-----0--|--1--1-----------L--1--3--|
G|-------------------|-------2-----------------|--------------------------|
D|-------------------|-------------------------|--------------------------|
A|-------------------|-------------------0-----|--------------------------|
E|--0----------------|-------------------------|--3-----------3-----------|


    E  E  E  E  Q    E  E     E  E  Q    E  E  Q       E  E  E  E  E  E  E  E   
e|--0--0-----0-------------|------------------------|--------------------------|
B|--------------3----3-----|--------1----------0----|-----------0--1--1-----0--|
G|----------------------2--|--------2----------2----|--2-----2-----------------|
D|-------------------------|-----2----------2-------|-----2--------------------|
A|-------------------------|--0---------------------|--0-----------------0-----|
E|--1-----1-----1----------|-------------3----------|--------------------------|


    E  H        E  E  E  E     E  E  E  E  Q    E  E     E  E  Q    E  E  Q     
e|--------------------------|--0--0-----0-------------|------------------------|
B|--1--1-----------L--1--3--|--------------3----3-----|--------1----------0----|
G|--------------------------|----------------------2--|--------2----------2----|
D|--------------------------|-------------------------|-----2----------2-------|
A|--------------------------|-------------------------|--0---------------------|
E|--3-----------3-----------|--1-----1-----1----------|-------------3----------|


    H        Q    Q       Q    Q    Q    Q       Q              
e|---------------------|----------------------|-------|-------||
B|----------------0----|--1----0--------------|-------|-------||
G|-----------2---------|------------2----0----|--2----|-------||
D|---------------------|----------------------|-------|-------||
A|--0------------------|----------------------|--0----|-------||
E|---------------------|----------------------|-------|-------||


Duration Legend
---------------

W - whole
H - half
Q - quarter
E - 8th
S - 16th
. - note dotted
|-n-|  - n-tuplets


Tablature Legend
----------------

L - tied note
x - dead note
g - grace note

            
            
Suggest correction
Creating personal tab
Creating personal tab
You can edit any tab online and save it as your Personal.

You can edit, replace or remove any tab part or add personal notes – all changes will be seen only by you.

Personal tabs can be accessed anytime from any device, even offline.
Learn more »
Give kudos to tab author, rate the tab!
1 2 3 4 5
comments
print report bad tab
guest
You may want to rate the tab now too:
select rating
Wanna post a correction for this tab? Suggest correction