Oops, an error
Loading. Please wait.

Live To Win bass

version 2
version 2

Whole song

  • Tab nr. 1 has the wrong tuning, notes are tabbed o... Show more

Interactive

121 views 1 this week
no commentswrite comment
1 2 3 4 5
3 more votes to show rating
add to favorites
×
Save as Personal and add changes to this tab that will be seen only by you. Learn more ›
×
You can save this tab as Personal to edit and correct it or add notes. All changes will be seen only by you. Learn more »
launch autoscroll
font size
0
reset
guitar tuner
backing track
0:00
0:00
edit
Autoscroll
slow
fast
+/-
esc
set tempo
stop
About this tab version
Tab nr. 1 has the wrong tuning, notes are tabbed on wrong string, lack of detail. Was this info helpful? Yes No
-------------------------------------------------------------------------------
                         Live to Win - Motörhead
-------------------------------------------------------------------------------
Tabbed by: 790FX
Album: Ace of Spades (1980)
Tuning: half step down

It's odd that there isn't any right tab, so I have to tab this song. :D


[Intro] 0:00
                     e e     e e e e            e e                    e e     e e e e     e e e e e e e e 
F#|---------|------------|-------------|------------|---------|------------|-------------|-----------------|
C#|---------|------------|-------------|------------|---------|------------|-------------|-5-5-5-5-7-7-7-7-|
G#|-5-7-7-0-|-10-9-5-5-5-|-5h7-7-7-7-0-|-10-9-5-5-5-|-5-7-7-0-|-10-9-5-5-5-|-5h7-7-7-7-0-|-----------------| 
D#|---------|------------|-------------|------------|---------|------------|-------------|-----------------|

                     e e     e e e e            e e                    e e     e e e e            e e 
F#|---------|------------|-------------|------------|---------|------------|-------------|------------|
C#|---------|------------|-------------|------------|---------|------------|-------------|------------|
G#|-5-7-7-0-|-10-9-5-5-5-|-5h7-7-7-7-0-|-10-9-5-5-5-|-5-7-7-0-|-10-9-5-5-5-|-5h7-7-7-7-0-|-10-9-5-5-5-| 
D#|---------|------------|-------------|------------|---------|------------|-------------|------------|



[Verse] @ 0:19

    e e e e e e e e   e e e e e e e e   e e e e e e e e   e e e e e e e e 
F#|-----------------|-----------------|-----------------|-----------------|
C#|-----------------|-----------------|-----------------|-----------------|
G#|-3h5-5-5-5-5-5-5-|-5-5-5-5-5-5-5-5-|-3h5-5-5-5-5-5-5-|-5-5-5-5-5-5-5-5-| x2
D#|-----------------|-----------------|-----------------|-----------------|



[Fill 1] @ 0:29

      e e e e            e e     e e e e            e e
F#|-------------|------------|-------------|------------|
C#|-------------|------------|-------------|------------|
G#|-5h7-7-7-7-0-|-10-9-5-5-5-|-5h7-7-7-7-0-|-10-9-5-5-5-|
D#|-------------|------------|-------------|------------|



[Chorus] @ 0:33

    e e e e e e e e   e e e e e e e e   e e e e e e e e   e e e e e e e e 
F#|-----------------|-----------------|-----------------|-----------------|
C#|-----------------|-----------------|-----------------|-----------------|
G#|-----------------|-----------------|-----------------|-----------------|
D#|-5h7-7-7-7-7-7-7-|-7-7-7-7-7-7-7-7-|-5h7-7-7-7-7-7-7-|-7-7-7-7-7-7-7-7-|

    e e e e e e e e   e e e e e e e e     e e e e e e   e e e e e e e e 
F#|-----------------|-----------------|---------------|-----------------|
C#|-----------------|-----------------|---------------|-----------------|
G#|-----------------|-----------------|---------------|-----------------|
D#|-5h7-7-7-7-7-7-7-|-7-7-7-7-7-7-7-7-|-5-5-5-5-5-5-5-|-5-5-5-5-5-5-5-5-|



[Fill 2] @ 0:29

      e e e e            e e     e e e e            e e
F#|-------------|------------|-------------|------------|
C#|-------------|------------|-------------|------------|
G#|-5h7-7-7-7-0-|-10-9-5-5-5-|-5h7-7-7-7-0-|-10-9-5-5-5-|
D#|-------------|------------|-------------|------------|

      e e e e            e e     e e e e         H
F#|-------------|------------|-------------|----------|
C#|-------------|------------|-------------|-5-7-5~---|
G#|-5h7-7-7-7-0-|-10-9-5-5-5-|-5h7-7-7-7-0-|----------|
D#|-------------|------------|-------------|----------|



[Verse] @ 0:52

    e e e e e e e e   e e e e e e e e   e e e e e e e e   e e e e e e e e 
F#|-----------------|-----------------|-----------------|-----------------|
C#|-----------------|-----------------|-----------------|-----------------|
G#|-3h5-5-5-5-5-5-5-|-5-5-5-5-5-5-5-5-|-3h5-5-5-5-5-5-5-|-5-5-5-5-5-5-5-5-| x2
D#|-----------------|-----------------|-----------------|-----------------|



[Fill 1] @ 1:01

      e e e e            e e     e e e e            e e
F#|-------------|------------|-------------|------------|
C#|-------------|------------|-------------|------------|
G#|-5h7-7-7-7-0-|-10-9-5-5-5-|-5h7-7-7-7-0-|-10-9-5-5-5-|
D#|-------------|------------|-------------|------------|



[Chorus] @ 0:33

    e e e e e e e e   e e e e e e e e   e e e e e e e e   e e e e e e e e 
F#|-----------------|-----------------|-----------------|-----------------|
C#|-----------------|-----------------|-----------------|-----------------|
G#|-----------------|-----------------|-----------------|-----------------|
D#|-5h7-7-7-7-7-7-7-|-7-7-7-7-7-7-7-7-|-5h7-7-7-7-7-7-7-|-7-7-7-7-7-7-7-7-|

    e e e e e e e e   e e e e e e e e     e e e e e e   e e e e e e e e 
F#|-----------------|-----------------|---------------|-----------------|
C#|-----------------|-----------------|---------------|-----------------|
G#|-----------------|-----------------|---------------|-----------------|
D#|-5h7-7-7-7-7-7-7-|-7-7-7-7-7-7-7-7-|-5-5-5-5-5-5-5-|-5-5-5-5-5-5-5-5-|



[Fill 2] @ 1:15

      e e e e            e e     e e e e            e e
F#|-------------|------------|-------------|------------|
C#|-------------|------------|-------------|------------|
G#|-5h7-7-7-7-0-|-10-9-5-5-5-|-5h7-7-7-7-0-|-10-9-5-5-5-|
D#|-------------|------------|-------------|------------|

      e e e e            e e     e e e e         H
F#|-------------|------------|-------------|----------|
C#|-------------|------------|-------------|-5-7-5~---|
G#|-5h7-7-7-7-0-|-10-9-5-5-5-|-5h7-7-7-7-0-|----------|
D#|-------------|------------|-------------|----------|


[Interlude] @ 1:25

    e e e e e e e e   e e e e e e e e   e e e e e e e e   e e e e e e e e 
F#|-----------------|-----------------|-----------------|-----------------|
C#|-3h5-5-5-5-5-5-5-|-5-5-5-5-5-5-5-5-|-3h5-5-5-5-5-5-5-|-5-5-5-5-5-5-5-5-|
G#|-----------------|-----------------|-----------------|-----------------|
D#|-----------------|-----------------|-----------------|-----------------|

    e e e e e e e e   e e e e e e e e   e e e e e e e e   e e e e e e e e 
F#|-----------------|-----------------|-----------------|-----------------|
C#|-----------------|-----------------|-----------------|-----------------|
G#|-3h5-5-5-5-5-5-5-|-5-5-5-5-5-5-5-5-|-3h5-5-5-5-5-5-5-|-5-5-5-5-5-5-5-5-|
D#|-----------------|-----------------|-----------------|-----------------|

    e e e e e e e e   e e e e e e e e   e e e e e e e e   e e e e e e e e 
F#|-----------------|-----------------|-----------------|-----------------|
C#|-----------------|-----------------|-----------------|-----------------|
G#|-----------------|-----------------|-----------------|-----------------|
D#|-6h8-8-8-8-8-8-8-|-8-8-8-8-8-8-8-8-|-6h8-8-8-8-8-8-8-|-8-8-8-8-8-8-8-8-|

    e e e e e e e e   e e e e e e e e   e e e e e e e e   e e e e e e e e 
F#|-----------------|-----------------|-----------------|-----------------|
C#|-----------------|-----------------|-----------------|-----------------|
G#|-----------------|-----------------|-----------------|-----------------|
D#|-5h7-7-7-7-7-7-7-|-7-7-7-7-7-7-7-7-|-5h7-7-7-7-7-7-7-|-7-7-7-7-7-7-7-7-|



[Fill 2] @ 1:43

      e e e e            e e     e e e e            e e
F#|-------------|------------|-------------|------------|
C#|-------------|------------|-------------|------------|
G#|-5h7-7-7-7-0-|-10-9-5-5-5-|-5h7-7-7-7-0-|-10-9-5-5-5-|
D#|-------------|------------|-------------|------------|

      e e e e            e e     e e e e         H
F#|-------------|------------|-------------|----------|
C#|-------------|------------|-------------|-5-7-5~---|
G#|-5h7-7-7-7-0-|-10-9-5-5-5-|-5h7-7-7-7-0-|----------|
D#|-------------|------------|-------------|----------|



[Verse] @ 1:53

    e e e e e e e e   e e e e e e e e   e e e e e e e e   e e e e e e e e 
F#|-----------------|-----------------|-----------------|-----------------|
C#|-----------------|-----------------|-----------------|-----------------|
G#|-3h5-5-5-5-5-5-5-|-5-5-5-5-5-5-5-5-|-3h5-5-5-5-5-5-5-|-5-5-5-5-5-5-5-5-| x2
D#|-----------------|-----------------|-----------------|-----------------|


[Fill 1] @ 2:02

      e e e e            e e     e e e e            e e
F#|-------------|------------|-------------|------------|
C#|-------------|------------|-------------|------------|
G#|-5h7-7-7-7-0-|-10-9-5-5-5-|-5h7-7-7-7-0-|-10-9-5-5-5-|
D#|-------------|------------|-------------|------------|



[Chorus] @ 2:07

    e e e e e e e e   e e e e e e e e   e e e e e e e e   e e e e e e e e 
F#|-----------------|-----------------|-----------------|-----------------|
C#|-----------------|-----------------|-----------------|-----------------|
G#|-----------------|-----------------|-----------------|-----------------|
D#|-5h7-7-7-7-7-7-7-|-7-7-7-7-7-7-7-7-|-5h7-7-7-7-7-7-7-|-7-7-7-7-7-7-7-7-|

    e e e e e e e e   e e e e e e e e     e e e e e e   e e e e e e e e 
F#|-----------------|-----------------|---------------|-----------------|
C#|-----------------|-----------------|---------------|-----------------|
G#|-----------------|-----------------|---------------|-----------------|
D#|-5h7-7-7-7-7-7-7-|-7-7-7-7-7-7-7-7-|-5-5-5-5-5-5-5-|-5-5-5-5-5-5-5-5-|



[Fill 2] @ 2:16

      e e e e            e e     e e e e            e e
F#|-------------|------------|-------------|------------|
C#|-------------|------------|-------------|------------|
G#|-5h7-7-7-7-0-|-10-9-5-5-5-|-5h7-7-7-7-0-|-10-9-5-5-5-|
D#|-------------|------------|-------------|------------|

      e e e e            e e     e e e e         H
F#|-------------|------------|-------------|----------|
C#|-------------|------------|-------------|-5-7-5~---|
G#|-5h7-7-7-7-0-|-10-9-5-5-5-|-5h7-7-7-7-0-|----------|
D#|-------------|------------|-------------|----------|


[Outro] @ 2:25
                                                                             _
    e e e e e e e e   e e e e e e e e   e e e e e e e e   e e e e e e e e     \
F#|-----------------|-----------------|-----------------|-----------------|    \
C#|-3h5-5-5-5-5-5-5-|-5-5-5-5-5-5-5-5-|-3h5-5-5-5-5-5-5-|-5-5-5-5-5-5-5-5-|     \
G#|-----------------|-----------------|-----------------|-----------------|      \
D#|-----------------|-----------------|-----------------|-----------------|       \
                                                                                   \
    e e e e e e e e   e e e e e e e e   e e e e e e e e   e e e e e e e e           \
F#|-----------------|-----------------|-----------------|-----------------|          \
C#|-----------------|-----------------|-----------------|-----------------|           \
G#|-3h5-5-5-5-5-5-5-|-5-5-5-5-5-5-5-5-|-3h5-5-5-5-5-5-5-|-5-5-5-5-5-5-5-5-|            \
D#|-----------------|-----------------|-----------------|-----------------|             \
                                                                                         | repeat until end
    e e e e e e e e   e e e e e e e e   e e e e e e e e   e e e e e e e e               /
F#|-----------------|-----------------|-----------------|-----------------|            /
C#|-----------------|-----------------|-----------------|-----------------|           /
G#|-----------------|-----------------|-----------------|-----------------|          /
D#|-6h8-8-8-8-8-8-8-|-8-8-8-8-8-8-8-8-|-6h8-8-8-8-8-8-8-|-8-8-8-8-8-8-8-8-|         /
                                                                                   /
    e e e e e e e e   e e e e e e e e   e e e e e e e e   e e e e e e e e         /
F#|-----------------|-----------------|-----------------|-----------------|      /
C#|-----------------|-----------------|-----------------|-----------------|     /
G#|-----------------|-----------------|-----------------|-----------------|    /
D#|-5h7-7-7-7-7-7-7-|-7-7-7-7-7-7-7-7-|-5h7-7-7-7-7-7-7-|-7-7-7-7-7-7-7-7-|  _/


************************************

| e   eighth note
| H   half note
| h   Hammer-on
| ~   Vibrato

************************************

            
            
Suggest correction
Creating personal tab
Creating personal tab
You can edit any tab online and save it as your Personal.

You can edit, replace or remove any tab part or add personal notes – all changes will be seen only by you.

Personal tabs can be accessed anytime from any device, even offline.
Learn more »
Give kudos to tab author, rate the tab!
1 2 3 4 5
comments
print report bad tab
guest
You may want to rate the tab now too:
select rating
Wanna post a correction for this tab? Suggest correction