Oops, an error
Loading. Please wait.

Jag Utan Dig chords

7,219 views 90 this week
no commentswrite comment
1 2 3 4 5
x 9
add to favorites
×
Save as Personal and add changes to this tab that will be seen only by you. Learn more ›
×
You can save this tab as Personal to edit and correct it or add notes. All changes will be seen only by you. Learn more »
launch autoscroll
font size
0
reset
transpose
0
reset
simplify chords
display chords
guitar tuner
edit
Autoscroll
slow
fast
+/-
esc
set tempo
stop
Strumming
There is no strumming pattern for this song yet. and get +5 IQ
Melodi: Jag utan Dig. (från Du Gamla Du Fria)
Artist: Håkan Hellström

Ackordförslag: Mats Fagergren (2016-08-28)

ackord:
        E,A,D,G,B,e
D.      x,x,0,2,3,2
G.      3,2,0,0,0,1
A.      x,0,2,2,2,0
D/C#.   x,4,0,2,3,2 alt. x,4,7,7,7,x
Bm.     x,2,4,4,3,2
D/A.    x,0,0,2,3,2
Em7.    0,1,0,0,0,0
Asus4.  x,0,2,2,3,0
F#m.    2,4,4,2,2,2

CAPO PÅ 4:E BANDET

**

[intro]

     D       G       A         D    D/C#  
|-----2---------------------------2----2--|
|----3----------0-------2--------3----3---|
|---2----0-2---0-0-----2-----0--2----2----|
|--0----4-----0---0---2--2-4---0----4-----|
|--------------------0--------------------|
|------------3----------------------------|


   Bm  D/A  Em7  Asus4  D       G   A 
|--------------------------2--------------|
|----3--------------------3-3-----0----2--|
|---4--------------------2---2---0----2---|
|--4-------0-2-2-4-0-0--0-------0----2----|
|-2----0-2------------2-------------0-----|
|------------------------------3----------|

     D       G       A         D    D/C#  
|-----2---------------------------2----2--|
|----3----------0-------2--------3----3---|
|---2----0-2---0-0-----2-----0--2----2----|
|--0----4-----0---0---2--2-4---0----4-----|
|--------------------0--------------------|
|------------3----------------------------|


   Bm  D/A  Em7  Asus4   D     Em7    Asus4 
|--------------------------2--------------|
|----3--------------------3-3-----2----4--|
|---4--------------------2---2---0----2---|
|--4-------0-2-2-4-0-0--0-------0----2----|
|-2----0-2------------2-------------0-----|
|-----------------------------0-----------|
**

[vers 1]
D             G
Flygplan utan vingar
A           D    D/C#
Kinder utan rodnad

Bm   D/A  Em7  Asus4     D     Em7 A   D
...Hmmmmmmmm...,Jag utan dig

[vers 2]
D         G
Piff utan Puff
A          D     D/C#
Pajas utan cirkus

Bm   D/A  Em7  Asus4     D     Em7 A 
...Hmmmmmmmm...,Jag utan dig

[mellanspel 1] 
D        A        F#m      G
Skeppsbruten utan land i sikte
G   F#m  G     A  D
Vad vore jag utan dig?

[stick 1]

D  G   A  D  D/C#  Bm D/A Em7 Asus4 D Em7 A  D

[vers 3]
D          G
Clyde utan Bonnie
A           D    D/C#
Sommar utan juli

Bm D/A        Em7        Asus4    D    Em7 A  D
   Det är bara jag, bara jag utan dig

[vers 4]
D              G
McCartney utan Lennon
A            D    D/C#
Mio utan Jum Jum

Bm D/A        Em7        Asus4    D    Em7 A
   Det är bara jag, bara jag utan dig

[mellanspel 2]

D      A        F#m     G
Båt på hav utan vind i segel
G   F#m  G     A   D
Vad vore jag utan dig?

[stick 2]

D  G   A  Bm D/A  G  F#m Em7 Asus4 D   Em7 A

D    A F#m   G   F#m   G   A D
hmmmm........................

[outtro repeat fade out]
D    A F#m   G   F#m   G    A D
hmmmm........................

            
            
Suggest correction
Creating personal tab
Creating personal tab
You can edit any tab online and save it as your Personal.

You can edit, replace or remove any tab part or add personal notes – all changes will be seen only by you.

Personal tabs can be accessed anytime from any device, even offline.
Learn more »
comments
print report bad tab
guest
You may want to rate the tab now too:
select rating
Wanna post a correction for this tab? Suggest correction