Oops, an error
Loading. Please wait.

Kann Ingen Sorg For Mig Goteborg intro tab

version 1
version 1

Intro

  • Well, what differentiates this tab from the other ... Show more

Whole song

316 views 6 this week
no commentswrite comment
1 2 3 4 5
2 more votes to show rating
add to favorites
×
Save as Personal and add changes to this tab that will be seen only by you. Learn more ›
×
You can save this tab as Personal to edit and correct it or add notes. All changes will be seen only by you. Learn more »
launch autoscroll
font size
0
reset
how to read this tab
guitar tuner
edit
Autoscroll
slow
fast
+/-
esc
set tempo
stop
Author
Difficulty
About this tab version
Well, what differentiates this tab from the other ones that has been submitted, is that this give the user a good platform to get to know the song, and can do so with a bit of a twist from the original(without making it sound "wrong"). And atleast I cant find any tab that looks like this. Was this info helpful? Yes No

Hello:)
This is my first submitted tab, so be humble since it has some tones that might not match the original. But
its a good start, and if played correctly it sounds pretty nice, if I may say so myself.

Good luck, and feel free to leave constructive comments:)



[Intro]

e|---------11--9-------------------------------------------------------------|
B|--9~--9---------9----------11s13--13---------------11/13-------------------|
G|------------------10--10---------------10-----------------10---------------|
D|-------------------------------------------11--11--------------------------|
A|---------------------------------------------------------------------------|
E|---------------------------------------------------------------------------|

e|----------------------------------|
B|----------------------------------|
G|--8--10--11--9--------------------|
D|----------------------------------|
A|----------------------------------|
E|----------------------------------|x2

The song follows with C-F before the verse 

Verse/Chorus: C - C/E - Am- G - F- Gm


| /   Slide up
| ~   Vibrato

Suggest correction
Creating personal tab
Creating personal tab
You can edit any tab online and save it as your Personal.

You can edit, replace or remove any tab part or add personal notes – all changes will be seen only by you.

Personal tabs can be accessed anytime from any device, even offline.
Learn more »
Give kudos to tab author, rate the tab!
1 2 3 4 5
comments
print report bad tab
guest
You may want to rate the tab now too:
select rating
Wanna post a correction for this tab? Suggest correction