Oops, an error
Loading. Please wait.

The Fatville Treaty Chords

4 views 3 this week
no commentswrite comment
1 2 3 4 5
3 more votes to show rating
add to favorites
launch autoscroll
font size
0
reset
transpose
0
reset
display chords
guitar tuner
Autoscroll
slow
fast
+/-
esc
set tempo
stop
Help us to improve Ultimate-Guitar.com Take our survey!
×
Author
[Intro/Interlude]
                C        Am
e|-----------7--8-------------------|
B|------8-10--------8----10---------|
G|-9-10-----------9---10-------9-7--|
D|--------------------------10------|
A|----------------------------------|
E|----------------------------------|

   C        Am          C        Am         F
e|-8------------------|-8----------------------|
B|-----8----10--------|-----8----10------------|
G|---9---10-------9-7-|---9---10-------9-7--10-|
D|-------------10-----|-------------10---------|
A|--------------------|------------------------|
E|--------------------|------------------------|

[Verse 1]
        F                           Am                   C
        Oh-oh,You've been there for years now, season to season,
                        G                            C
        Jusr leaning on doors and hoping for them to crack
                          Am                      C
        and grant you the benefit to give you the seal
                          G                   F
       'cause you want so bad to be in on the deal 
                              Am
        But you can't ask the questions
                                  C
        you don't wanna lose your cool
                               G                     C
        paint your face in the colour of yet another school
                     Am                C        G
        Well, not to break that little spell of yours
                                     F
        but tell me: does the camera add a few
                         G
        even if noone is watching you? 

[Chorus]
C            E      Am            F
Drop the veil, I've seen it all before and you know, 
C                        E                      Am      F
you ain't a beauty but I think you're gonna be alright, ok, so come on

[Interlude]
                C        Am
e|-----------7--8-------------------|
B|------8-10--------8----10---------|
G|-9-10-----------9---10-------9-7--|
D|--------------------------10------|
A|----------------------------------|
E|----------------------------------|

   C        Am          C        Am         F
e|-8------------------|-8----------------------|
B|-----8----10--------|-----8----10------------|
G|---9---10-------9-7-|---9---10-------9-7--10-|
D|-------------10-----|-------------10---------|
A|--------------------|------------------------|
E|--------------------|------------------------|

[Verse 2]
        In a dream of the city on the back of a predator
        shining it's armour, feed off the scraps
        you hid in the backhairs just pouncing on lice
        and drinking their juices to forget
        turned on the lights and
        switched on the jukebox
        and fed me the butt of it til it went up
        said: Kid I'm gonna break that little spell of yours 
                 F                          C     G            F
       'Cause in times like these you gotta move away from the center
                   C          G            F
        you gotta' get to the heart of the matter
                     C           G
        cos we could feel so much better together than this 

[Bridge]
                C         G      Am      F
        And you know just how to play me Fatville
                 C         G      Am      F
        Well you know just how to play me Fatville
                 C         G      Am      F
        Well you know just how to play me Fatville
                 C         G      F
        Well you know just how to play us all
                                     G
        but there's a pattern in the grid you need to see right through 

[Chorus]
Drop the veil, seen it all before and you know, 
you ain't a beauty but I think you're gonna' be alright, ok so come on
C               E          Am       F
Drop the veil, o-oh, o-oh, drop the veil
C                                E
Don't wanna stay, there's really not much else to say
         F                            G
but this city is like sun eclipsed in zenith by a paper tiger moon

[Outro]
Drop the veil, o-oh, drop the veil
Drop the veil, o-oh, o-oh, drop the veil (e-ey)
Drop the veil, o-oh, o-oh, drop the veil (e-ey)
Don't wanna stay here, there's really not much else to say
         F                            G                       C
but this city is like sun eclipsed in zenith by a paper tiger moon
Suggest correction
Give kudos to tab author, rate the tab!
1 2 3 4 5
comments
print report bad tab
guest
You may want to rate the tab now too:
select rating
Wanna post a correction for this tab? Suggest correction