Oops, an error
Loading. Please wait.

Ingen Oro Tjabo Tab

679 views 42 this week
4 commentsread comments
1 2 3 4 5
x 4
add to favorites
launch autoscroll
font size
0
reset
how to read this tab
guitar tuner
Autoscroll
slow
fast
+/-
esc
set tempo
stop
Help us to improve Ultimate-Guitar.com Take our survey!
×
Author
Difficulty
Capo
novice
3rd fret
Håkan Hellström - Ingen Oro, Tjabo
Du Gamla du Fria

Capo 3

Intro
   G             C              Em             C
e|---------------------------------------------------------------------------|
B|----0--------------------------------------------------0-0-----------------|
G|------2-2-0-0----0----------------------0-0-----0---0----------------------|
D|--0----------------4-2--0--------2-0-2------------2------------------------|
A|---------------3-----------------------------3-----------------------------|
E|-3----------------------------0--------------------------------------------|

   G             C              Em             C
e|---------------------------------------------------------------------------|
B|----0----------------------------------------------------------------------|
G|------2-2-0-0----0----------------------0-0-----0---0--2-2-----------------|
D|--0----------------4-2--0--------2-0-2------------2------------------------|
A|---------------3-----------------------------3-----------------------------|
E|-3----------------------------0--------------------------------------------|
   
   D          C      D          C
e|---------------------------------------------------------------------------|
B|---------0-----------------0-----------------------------------------------|
G|---2-0-2------0------2-0-2------0------------------------------------------|
D|-0----------2------0----------2--------------------------------------------|
A|------------3-----------------3--------------------------------------------|
E|---------------------------------------------------------------------------|

Vers

"Blivit älskad nån gång och blivit lagd åt sidan men
Hon var från stans finaste kvarter"
   G         C         Em        C
e|---------------------------------------------------------------------------|
B|---------------------------------------------------------------------------|
G|-----0---------0---------0---------0---------------------------------------|
D|---0-0-0-----2-2-2-----2-2-2-----2-2-2-------------------------------------|
A|-----------3-------------------3-------------------------------------------|
E|-3-------------------0-----------------------------------------------------|

"Ingen oro, tjabo" x2
   D          C      D          C
e|---------------------------------------------------------------------------|
B|---------0-----------------0-----------------------------------------------|
G|---2-0-2------0------2-0-2------0------------------------------------------|
D|-0----------2------0----------2--------------------------------------------|
A|------------3-----------------3--------------------------------------------|
E|---------------------------------------------------------------------------|

Bridge-ish


"Jag trodde jag visste vad kärlek var
Men vad visste jag?"
      D       G      C      G
e|----2-------3------0------3------------------------------------------------|
B|----3-------3------1------3------------------------------------------------|
G|----2-------0------0------0------------------------------------------------|
D|----0-------0------2------0------------------------------------------------|
A|------------2------3------2------------------------------------------------|
E|------------3-------------3------------------------------------------------|

"Ingen oro, tjabo" x2
   D          C      D          C
e|---------------------------------------------------------------------------|
B|---------0-----------------0-----------------------------------------------|
G|---2-0-2------0------2-0-2------0------------------------------------------|
D|-0----------2------0----------2--------------------------------------------|
A|------------3-----------------3--------------------------------------------|
E|---------------------------------------------------------------------------|


Outro
"Du kan ta det lugnt nu, tjabo, Vila ut nu, tjabo"
   D          C      D          C             G
e|---------------------------------------------------------------------------|
B|---------0-----------------0--0-----------------0--------------------------|
G|---2-0-2------0------2-0-2------0--------------0---------------------------|
D|-0----------2------0--------------2-0---------0----------------------------|
A|------------3-----------------3--------------2-----------------------------|
E|--------------------------------------------3------------------------------|




Enjoy!
Suggest correction
comments
print report bad tab
4 comments total. Showing first comments.
0 reply
saladfinger 10 Sep 20, 2016 06:04 PM

kung e du. fan va bra

0 reply
saladfinger 10 Sep 20, 2016 06:05 PM

.sadasdasdas

0 reply
WilliamKörner 102 Sep 21, 2016 10:37 AM

Grymt tab, en får tacka!

guest
You may want to rate the tab now too:
select rating
Wanna post a correction for this tab? Suggest correction