Oops, an error
Loading. Please wait.

Sweet Marie Tab

7 views 1 this week
no commentswrite comment
1 2 3 4 5
3 more votes to show rating
add to favorites
launch autoscroll
font size
0
reset
how to read this tab
guitar tuner
Autoscroll
slow
fast
+/-
esc
set tempo
stop
Help us to improve Ultimate-Guitar.com Take our survey!
×
Author
Difficulty
Capo
novice
4th fret
Capo 4.


[Intro]

e|---0-0----0-0----0-0----0-0---|
B|---5-5----5-5----5-5----5-5---|
G|---6-6----6-6----6-6----6-6---|  
D|---6-6----6-6----6-6----6-6---|
A|-4----------------------------|
E|--------4------5------0-------|(x2)


[Verse 1]

e|---0-0----0-0----0-0----0-0---|
B|---5-5----5-5----5-5----5-5---|
G|---6-6----6-6----6-6----6-6---|   
D|---6-6----6-6----6-6----6-6---|
A|-4----------------------------|
E|--------4------5------0-------|(x2)

Were we still kissing when you knew that we were through?

e|---0-0----0-0----0-0----0-0-----0-0----0-0----0-0--0-0-0-0--|
B|---5-5----5-5----5-5----5-5-----5-5----5-5----5-5--5-5-5-5--|
G|---6-6----6-6----6-6----6-6-----6-6----6-6----6-6--6-6-6-6--|
D|---6-6----6-6----6-6----6-6-----6-6----6-6----6-6--6-6-6-6--|
A|-4----------------------------------------------------------|
E|--------4------5------0-------2------2------7------7-7-7-7--|

Were we still holding hands when you began to see us from another point of view?

e|---0-0----0-0----0-0----0-0---|
B|---5-5----5-5----5-5----5-5---|
G|---6-6----6-6----6-6----6-6---|  
D|---6-6----6-6----6-6----6-6---|
A|-4----------------------------|
E|--------4------5------0-------|(x2)

Tell me was I slipping before I even knew?

e|---0-0----0-0----0-0----0-0---0-0-0-0-0--0-0-0-0-0-0-0--|
B|---5-5----5-5----5-5----5-5---5-5-5-5-5--5-5-5-5-5-5-5--|
G|---6-6----6-6----6-6----6-6---6-6-6-6-6--6-6-6-6-6-6-6--| 
D|---6-6----6-6----6-6----6-6---6-6-6-6-6--6-6-6-6-6-6-6--|
A|-4------------------------------------------------------|
E|--------4------5------0-------2-2-2-2-2--7-7-7-7-7-7-7--|

Did I fall down and make my mind go black and blue?


[Refrain]

e|-0-0-0--0-0-0--0-0--0-0-0-|          e|-0-0-0-0-0--0---------|
B|-0-0-0--0-0-0--0-0--0-0-0-|          B|-0-0-0-0-0--0---------|
G|-9-9-9--5-5-5--6-6--1-1-1-|          G|-3-3-3-3-3--6---------|
D|-9-9-9--6-6-6--7-7--2-2-2-|          D|-4-4-4-4-4--7---------| 
A|-7-7-7--6-6-6--7-7--2-2-2-|          A|-4-4-4-4-4--7---------|
E|-0-0-0--4-4-4--5-5--0-0-0-|(x3)      E|-2-2-2-2-2--5--5-4-5-4   

Didn't I know and couldn't I see? And why did I have to make those same mistakes my sweet Marie?


[Verse 2]

e|---0-0----0-0----0-0----0-0---|
B|---5-5----5-5----5-5----5-5---|
G|---6-6----6-6----6-6----6-6---|  
D|---6-6----6-6----6-6----6-6---|
A|-4----------------------------|
E|--------4------5------0-------|(x2)

Did I hit the wall before I knew which way to go?

e|---0-0----0-0----0-0----0-0-----0-0-0-0--0-0-0-0-0-0--|
B|---5-5----5-5----5-5----5-5-----5-5-5-5--5-5-5-5-5-5--|
G|---6-6----6-6----6-6----6-6-----6-6-6-6--6-6-6-6-6-6--|
D|---6-6----6-6----6-6----6-6-----6-6-6-6--6-6-6-6-6-6--|
A|-4----------------------------------------------------|
E|--------4------5------0---------2-2-2-2--7-7-7-7-7-7--|

Couldn't I just understand when you said no no no no no no no no no no no no?

e|---0-0----0-0----0-0----0-0---|
B|---5-5----5-5----5-5----5-5---|
G|---6-6----6-6----6-6----6-6---|  
D|---6-6----6-6----6-6----6-6---|
A|-4----------------------------|
E|--------4------5------0-------|(x2)

Were you deceiving me with conscience white as snow?

e|---0-0----0-0----0-0----0-0---0-0-0-0-0--0-0-0-0-0-0-0--|
B|---5-5----5-5----5-5----5-5---5-5-5-5-5--5-5-5-5-5-5-5--|
G|---6-6----6-6----6-6----6-6---6-6-6-6-6--6-6-6-6-6-6-6--| 
D|---6-6----6-6----6-6----6-6---6-6-6-6-6--6-6-6-6-6-6-6--|
A|-4------------------------------------------------------|
E|--------4------5------0-------2-2-2-2-2--7-7-7-7-7-7-7--|
 
You should win an Oscar for how aptly you performed the show.


[Refrain]

e|-0-0-0--0-0-0--0-0--0-0-0-|     e|-0-0-0-0-0--0-|
B|-0-0-0--0-0-0--0-0--0-0-0-|     B|-0-0-0-0-0--0-|
G|-9-9-9--5-5-5--6-6--1-1-1-|     G|-3-3-3-3-3--6-|
D|-9-9-9--6-6-6--7-7--2-2-2-|     D|-4-4-4-4-4--7-|
A|-7-7-7--6-6-6--7-7--2-2-2-|     A|-4-4-4-4-4--7-|
E|-0-0-0--4-4-4--5-5--0-0-0-|(x3) E|-2-2-2-2-2--5-|

Didn't I know and couldn't I see? And why did I have to make those same mistakes my sweet Marie?

e|-0-0--0-0-0-0-0-0-0-0--0-0-0-0-0-0-0-0-|
B|-0-0--0-0-0-0-0-0-0-0--0-0-0-0-0-0-0-0-|
G|-5-5--2-2-2-2-2-2-2-2--1-1-1-1-1-1-1-1-| 
D|-6-6--4-4-4-4-4-4-4-4--2-2-2-2-2-2-2-2-| 
A|-6-6--4-4-4-4-4-4-4-4--2-2-2-2-2-2-2-2-|
E|-4-4--2-2-2-2-2-2-2-2--0-0-0-0-0-0-0-0-|

I've got so many worries I'm afraid my head will explode. 

e|-0-0--0-0-0-0-0-0-0-0--0-0-0-0-0-0-0-0-0--0-0-0-0-0-0-0-0-0-0--0-0-0-0-0-0--0-0-0-0--0-0-0-0--0-|
B|-0-0--0-0-0-0-0-0-0-0--0-0-0-0-0-0-0-0-0--0-0-0-0-0-0-0-0-0-0--0-0-0-0-0-0--5-5-5-5--0-0-0-0--0-|
G|-5-5--2-2-2-2-2-2-2-2--6-6-6-8-8-8-9-9-9--5-5-2-2-2-2-2-2-2-2--1-1-1-1-1-1--6-6-6-6--5-5-5-5--6-| 
D|-6-6--4-4-4-4-4-4-4-4--6-6-6-8-8-8-9-9-9--6-6-4-4-4-4-4-4-4-4--2-2-2-2-2-2--6-6-6-6--6-6-6-6--7-| 
A|-6-6--4-4-4-4-4-4-4-4--4-4-4-6-6-6-7-7-7--6-6-4-4-4-4-4-4-4-4--2-2-2-2-2-2--4-4-4-4--6-6-6-6--7-|
E|-4-4--2-2-2-2-2-2-2-2---------------------4-4-2-2-2-2-2-2-2-2--0-0-0-0-0-0-----------4-4-4-4--5-|

I'm doing everything to help me get away from this load.
It's kind of complicated but I never learned your code, your code, your code, your fucking...


[Verse 3]

e|---0-0----0-0----0-0----0-0---|
B|---5-5----5-5----5-5----5-5---|
G|---6-6----6-6----6-6----6-6---|  
D|---6-6----6-6----6-6----6-6---|
A|-4----------------------------|
E|--------4------5------0-------|(x4)


[Code]

So were we still kissing when you knew that we were through?

e|---0-0----0-0----0-0----0-0-----0-0-0-0--0-0-0-0-0-0--|
B|---5-5----5-5----5-5----5-5-----5-5-5-5--5-5-5-5-5-5--|
G|---6-6----6-6----6-6----6-6-----6-6-6-6--6-6-6-6-6-6--|
D|---6-6----6-6----6-6----6-6-----6-6-6-6--6-6-6-6-6-6--|
A|-4----------------------------------------------------|
E|--------4------5------0---------2-2-2-2--7-7-7-7-7-7--|

Did I make it impossible for one plus one to equal to two?


[Refrain]

e|-0-0-0--0-0-0--0-0-0--0-0-0-|         e|-0-0-0-0-0--0-0-0-0-0-|
B|-0-0-0--0-0-0--0-0-0--0-0-0-|         B|-0-0-0-0-0--0-0-0-0-0-|
G|-9-9-9--5-5-5--6-6-6--1-1-1-|         G|-3-3-3-3-3--6-6-6-6-6-|
D|-9-9-9--6-6-6--7-7-7--2-2-2-|         D|-4-4-4-4-4--7-7-7-7-7-|
A|-7-7-7--6-6-6--7-7-7--2-2-2-|         A|-4-4-4-4-4--7-7-7-7-7-|
E|-0-0-0--4-4-4--5-5-5--0-0-0-|(x3)     E|-2-2-2-2-2--5-5-5-5-5-|

Didn't I know and couldn't I see? And why did I have to make those same mistakes my sweet Marie? 

e|-0-0-0-0-|         e|-0-0-0-0-0--0-0-0-0-0-|
B|-0-0-0-0-|         B|-0-0-0-0-0--0-0-0-0-0-|
G|-9-9-9-9-|         G|-3-3-3-3-3--6-6-6-6-6-|
D|-9-9-9-9-|         D|-4-4-4-4-4--7-7-7-7-7-|
A|-7-7-7-7-|         A|-4-4-4-4-4--7-7-7-7-7-|
E|-0-0-0-0-|(x7)     E|-2-2-2-2-2--5-5-5-5-5-|


e|-0-0-0--0-0-0--0-0-0--0-0-0-|
B|-0-0-0--0-0-0--0-0-0--0-0-0-|
G|-9-9-9--5-5-5--6-6-6--1-1-1-| 
D|-9-9-9--6-6-6--7-7-7--2-2-2-|
A|-7-7-7--6-6-6--7-7-7--2-2-2-|
E|-0-0-0--4-4-4--5-5-5--0-0-0-|(x3)


[Outro]

e|-0-0-0-0-0--0-0-0-0--0-0-0-0-0-0-0-0-0-0-0-0-0-0-0-0-0-0-0---|
B|-0-0-0-0-0--0-0-0-0--4-4-5-5-5-5-5-5-5-5-5-5-5-5-5-5-5-5-5---|
G|-3-3-3-3-3--6-6-6-6--4-4-6-6-6-6-6-6-6-6-6-6-6-6-6-6-6-6-6---|
D|-4-4-4-4-4--7-7-7-7--4-4-6-6-6-6-6-6-6-6-6-6-6-6-6-6-6-6-6---|
A|-4-4-4-4-4--7-7-7-7--2-2-4-4-4-4-4-4-4-4-4-4-4-4-4-4-4-4-4---|
E|-2-2-2-2-2--5-5-5-5------------------------------------------|



************************************

| x dead note

************************************
Suggest correction
Give kudos to tab author, rate the tab!
1 2 3 4 5
comments
print report bad tab
guest
You may want to rate the tab now too:
select rating
Wanna post a correction for this tab? Suggest correction