Oops, an error
Loading. Please wait.

Ringside Corner Chords

7 views 1 this week
no commentswrite comment
1 2 3 4 5
3 more votes to show rating
add to favorites
launch autoscroll
font size
0
reset
transpose
0
reset
display chords
guitar tuner
Autoscroll
slow
fast
+/-
esc
set tempo
stop
Help us to improve Ultimate-Guitar.com Take our survey!
×
Author
Difficulty
novice
[Intro]

E   F#m   A   B  (x3)


[Verse 1]

E          F#m        A               B
    Pick a fight and I'll be in your ringside corner.
E          F#m       A            B
    Play a game and I'll be your king and your queen.


[Instrumental]

E  F#m  A  B


[Verse 2]

E             F#m      A            B
     Swim the sea and I'll be your saviour boat.
E                   F#m        A                   B
     Say something stupid and I'll give them their anecdote.


[Chorus]

G#m                    A                 C#m            B
        And won't you tell me if what I'm doing isn't enough?
G#m                    A                C#m              B - stop
        And won't you tell me if what I'm saying is too much?

E F#m A B                                       
          Just don't let me down.
E  F#m                      A      B                    
          And don't leave me dry.


[Solo]

G#m  A  C#m  B   (x2)
E    F#m  A  B   (x4)

              E
Don't let me down!


Solo tab:
e|----------------------------------------------------------------------|
B|-----------------------------9b10----9b10----------------12-----------|
G|--8----8--9--11--9----9--11-------------------8---9---11--------------|
D|----------------------------------------------------------------------|
A|----------------------------------------------------------------------|
E|----------------------------------------------------------------------|

e|--------------------------------19----17----16----14--17--16----------|
B|--12--14--16--14----14--16--17--------------------------------17------|
G|----------------------------------------------------------------------|
D|----------------------------------------------------------------------|
A|----------------------------------------------------------------------|
E|----------------------------------------------------------------------|


************************************

| b  Bend

************************************
Suggest correction
Give kudos to tab author, rate the tab!
1 2 3 4 5
comments
print report bad tab
guest
You may want to rate the tab now too:
select rating
Wanna post a correction for this tab? Suggest correction