Oops, an error
Loading. Please wait.

Goodnight Wendy Tab

4 views 1 this week
no commentswrite comment
1 2 3 4 5
3 more votes to show rating
add to favorites
launch autoscroll
font size
0
reset
how to read this tab
guitar tuner
Autoscroll
slow
fast
+/-
esc
set tempo
stop
Help us to improve Ultimate-Guitar.com Take our survey!
×
Author
Difficulty
novice
Bara en liten uppdatering när det gäller ackorden och hur de plockas. Bry dig inte om ackordnamnen om 
de verkar krångliga, bara det låter rätt så.

Såhär går gitarrkompet under hela låten...

   D                 Gmaj7/B            Cadd9             A7add11
e|----------2------------------2-----------------0-----------------0-------|
B|-------3-----3-----------3------3-----------3-----3-----------3-----3----|
G|----2-----------2-----0------------0-----0-----------0-----0-----------0-|
D|-0-----------------------------------------------------------------------|
A|-------------------2------------------3-----------------0----------------|
E|-------------------------------------------------------------------------|

...förutom tredje gången du spelar det varje vers (t ex första versen: But Wendy, as I look...). 
Då låter det istället såhär:

  D                 Dadd11/B           Gmaj7/B           Gm6/Bb
e|----------2------------------2-----------------2-----------------0-------|
B|-------3-----3-----------3------3-----------3-----3-----------3-----3----|
G|----2-----------2-----0------------0-----0-----------0-----0-----------0-|
D|-0-----------------------------------------------------------------------|
A|-------------------3------------------2-----------------1----------------|
E|-------------------------------------------------------------------------|


[Intro]

D   D/B(no5)   Cadd9   Em7(no5)  (x2)


[Verse 1]

D    D/B    Cadd9   Em7 
As I lay me down to sleep 
D       D/B       Cadd9    Em7
I can't see for a thousand dreams
    D         Cadd9  D/B(no5)        Daug
But Wendy, as I look into your faded eyes
   D      D/B             Cadd9       Em7
Oh Wendy, I see something's wrong
    D      D/B            Cadd9        Em7
Yes Wendy, baby, something's wrong.


[Verse 2]
(same as verse 1 chords)

As we walk the long long streak, I can see you're a little weak
But Wendy see me walking next to you, 
Cause Wendy, I've been there too.
Oh Wendy, I've been there too.

As we walk until late at night I'll be right here until you're all right
So Wendy can't you open up for me?
Wendy, baby, can't you see when you wake up, baby, it's just me.


[Bridge]

D/F#     Dm7  Gadd9
Wendy, 
          D/F#     Dm7  Gadd9
oh please Wendy, baby, can't you see?
   D/F#   Dm7    Gadd9
Oh Wendy, Wendy, Can't you see?


[Chorus]

     D    Cadd9     D/B(no5)       Daug          
As I look into your dark and faded eyes. 
    D     D/B     Cadd9    Em7
Goodnight Wendy, 
    D      Cadd9   D/B(no5)     Daug
goodnight.
    D     Cadd9  D/B(no5)    Daug  (x2)
Goodnight.


Chords diagrams:

     D   D/B(no5) Cadd9  Em7(no5) Daug  D/F#  Dm7  Gadd9
e|---2----2-------3------3--------2-----2-----5----7----|
B|---3----3-------3------3--------3-----3-----6----8----|
G|---2----------------------------------2-----5----7----|
D|----------------2------2------------------------------|
A|--------2-------3---------------1---------------------|
E|--------------------------------------2-----5----7----|

(Med utrymme för improvisation och färgningar...)
är absolut inte säker på att det är helt rätt speciellt inte på "oh please wendy, 
baby can't you see..." - delen
Suggest correction
Give kudos to tab author, rate the tab!
1 2 3 4 5
comments
print report bad tab
guest
You may want to rate the tab now too:
select rating
Wanna post a correction for this tab? Suggest correction