Oops, an error
Loading. Please wait.

На Старых Сидениях Кинотеатра Tab

847 views 21 this week
no commentswrite comment
1 2 3 4 5
3 more votes to show rating
add to favorites
launch autoscroll
font size
0
reset
how to read this tab
guitar tuner
Autoscroll
slow
fast
+/-
esc
set tempo
stop
Help us to improve Ultimate-Guitar.com Take our survey!
×
Author
Difficulty
intermediate
Буерак – На Старых Сидениях Кинотеатра


[Riff 1] x4

e|-----------------------------------------------------------------------------------------------------------|
B|-4-4-------4---6-6-6-4--4-4-4-4-4-------4---6-6-6-4--3-3\-1-------1--1-1--3-3-3-3--------------------------|
G|-----3---3---3--------------------3---3---3-----------------1---1-----------------0-----0-----0-----0------|
D|-------5----------------------------5-------------------------1-------------------1-1-1-1-1-1-1-1-1-1-1-1-1|
A|-----------------------------------------------------------------------------------------------------------|
E|-----------------------------------------------------------------------------------------------------------|


[Riff 2] x4

e|-----------------------------------------------------------------------3-3-3-3-------------------3-3-3-3--|
B|-1-1-1-1-1-1-1-1-1-3-3-3-3-1-1-1-1-1-1-1-1-1-3-3-3-3-4-4-4-4-4-4-4-4-4---------4-4-4-4-4-4-4-4-4----------|
G|----------------------------------------------------------------------------------------------------------|
D|----------------------------------------------------------------------------------------------------------|
A|----------------------------------------------------------------------------------------------------------|
E|----------------------------------------------------------------------------------------------------------|

e|----------------------------------------------------------------------------------------------------------|
B|-1-1-1-1-1-1-1-1-1-3-3-3-3-1-1-1-1-1-1-1-1-1-3-3-3-3------------------------------------------------------|
G|-----------------------------------------------------0-0-0-0-0-0-0-0-0-0-0-0-0-0-0-0-0-0-0-0-0-0-0-0-0-0--|
D|----------------------------------------------------------------------------------------------------------|
A|----------------------------------------------------------------------------------------------------------|
E|----------------------------------------------------------------------------------------------------------|


[Riff 3] x4

e|------------3-3-3---------------------3-3-3---------------------------------------------------------------|
B|----------4-------6-4-4-3-----------4-------6-4-4-3-----------4--4-4--6-6-6\------------------------------|
G|------3-------------------------3-------------------------5------------------0---0---0---0-0-0-0-0-0-0-0--|
D|----5---5---------------------5---5-------------------------6----------------1-1---1---1-1-1-1-1-1-1-1-1--|
A|-3-------------------------3-------------------------6--6-------------------------------------------------|
E|----------------------------------------------------------------------------------------------------------|


[Riff 4] x2

e|-------------3-3--------------------3-3-------------------------------------------------------------------|
B|-----------4-----6-4-4-3----------4-----6-4-4-3----------3------4-4-4-3----------3-----4-4-4-3------------|
G|-------5----------------------5----------------------3------3----------------3-----3----------------------|
D|---6-6---6----------------6-6---6----------------------5------5----------------5-----5--------------------|
A|-------------------------------------------------6-6---------------------6-6------------------------------|
E|----------------------------------------------------------------------------------------------------------|


[Break]

e|-----------------------------------|
B|---4*------------------------------|
G|---5-------------0-----------------|
D|---6-------------1-----------------|
A|-----------------------------------|
E|-----------------------------------| x2

* - first time


[Solo] till end

e|---11-11-11-11-11-11-11-------------------11-11-11-11-11-11-11-----------------------|
B|------------------------13-13-11-11-11h13----------------------13-13-13-11-11-11-11\-|
G|-------------------------------------------------------------------------------------|
D|-------------------------------------------------------------------------------------|
A|-------------------------------------------------------------------------------------|
E|-------------------------------------------------------------------------------------|

e|------------------------------------------------------------|
B|-8-8-8-8-8-8-8-8-8-8-6-6-6-6-8-8-8-8-8-8-8-8-8-8-6-6-6-6----|
G|------------------------------------------------------------|
D|------------------------------------------------------------|
A|------------------------------------------------------------|
E|------------------------------------------------------------|

************************************

| h hammer-on
| \ slide

************************************
Suggest correction
Give kudos to tab author, rate the tab!
1 2 3 4 5
comments
print report bad tab
guest
You may want to rate the tab now too:
select rating
Wanna post a correction for this tab? Suggest correction