Oops, an error
Loading. Please wait.

Bollen Måste Dö Tab

10 views 1 this week
no commentswrite comment
1 2 3 4 5
3 more votes to show rating
add to favorites
launch autoscroll
font size
0
reset
how to read this tab
guitar tuner
Autoscroll
slow
fast
+/-
esc
set tempo
stop
Help us to improve Ultimate-Guitar.com Take our survey!
×
Author
Difficulty
novice
Bollen Måste Dö - Timo Räisänen

Här kommer tabben till den klart bästa vm-låten i år! Jag vet inte om Timo
har släppt den här som singel eller nåt, men den fanns att ladda ner från
hans hemsida för ett tag sedan.


[Intro]

   C               F                 Dm              G 
e|---------------------------------|---------------------------------|
B|---1-----1-----1---1-----1-----1-|---1-----1-----1---1-----1-----1-|
G|-----0-----0---------0-----0-----|-----0-----0---------0-----0-----|
D|---------------------------------|-0-----0-----0-------------------|
A|-3-----3-----3-------------------|---------------------------------|
E|-----------------1-----1-----1---|-----------------3-----3-----3---|

   E               Am                F               G
e|---------------------------------|---------------------------------|
B|---1-----1-----1---1-----1-----1-|---1-----1-----1---1-----1-----1-|
G|-----0-----0---------0-----0-----|-----0-----0---------0-----0-----|
D|---------------------------------|---------------------------------|
A|-----------------0-----0-----0---|---------------------------------|
E|-0-----0-----0-------------------|-1-----1-----1---3-----3-----3---|

  C               E               
e|---------------------------------|
B|---1-----1-----1---1-----1-----1-|
G|-----0-----0---------0-----0-----|
D|-----------------2-----2-----2---|
A|-3-----3-----3-------------------|
E|---------------------------------|


[Verse 1]

   F                                 Dm                      
e|---------------------------------|---------------------------------| 
B|---1-----1-----1---1-----1-----1-|---1-----1-----1---1-----1-----1-| 
G|-----0-----0---------0-----0-----|-----0-----0---------0-----0-----| 
D|---------------------------------|-0-----0-----0---0-----0-----0---| 
A|---------------------------------|---------------------------------| 
E|-1-----1-----1---1-----1-----1---|---------------------------------|  
                                                                     |   
   C                                 Am                              |(x3)
e|---------------------------------|---------------------------------| 
B|---1-----1-----1---1-----1-----1-|---1-----1-----1---1-----1-----1-| 
G|-----0-----0---------0-----0-----|-----0-----0---------0-----0-----| 
D|---------------------------------|---------------------------------| 
A|-3-----3-----3---3-----3-----3---|-0-----0-----0---0-----0-----0---| 
E|---------------------------------|---------------------------------| 

   F                                 G               
e|---------------------------------|---------------------------------|
B|---1-----1-----1---1-----1-----1-|---1-----1-----1---1-----1-----1-|
G|-----0-----0---------0-----0-----|-----0-----0---------0-----0-----|
D|---------------------------------|---------------------------------|
A|---------------------------------|---------------------------------|
E|-1-----1-----1---1-----1-----1---|-3-----3-----3---3-----3-----3---|

   C               E                 F              
e|---------------------------------|---------------------------------|
B|---1-----1-----1---1-----1-----1-|---1-----1-----1---1-----1-----1-|
G|-----0-----0---------0-----0-----|-----0-----0---------0-----0-----|
D|-----------------2-----2-----2---|---------------------------------|
A|-3-----3-----3-------------------|---------------------------------|
E|---------------------------------|-1-----1-----1---1-----1-----1---|

   G
e|---------------------------------|
B|---1-----1-----1---1-----1-----1-|
G|-----0-----0---------0-----0-----|
D|---------------------------------|
A|---------------------------------|
E|-3-----3-----3---3-----3-----3---|


[Refrain]

   C                F                 Dm              G 
e|---------------------------------|---------------------------------|
B|---1-----1-----1---1-----1-----1-|---1-----1-----1---1-----1-----1-|
G|-----0-----0---------0-----0-----|-----0-----0---------0-----0-----|
D|---------------------------------|-0-----0-----0-------------------|
A|-3-----3-----3-------------------|---------------------------------|
E|-----------------1-----1-----1---|-----------------3-----3-----3---|
                                                                     |
   E               Am                F               G               |(x2)
e|---------------------------------|---------------------------------| 
B|---1-----1-----1---1-----1-----1-|---1-----1-----1---1-----1-----1-| 
G|-----0-----0---------0-----0-----|-----0-----0---------0-----0-----| 
D|---------------------------------|---------------------------------| 
A|-----------------0-----0-----0---|---------------------------------| 
E|-0-----0-----0-------------------|-1-----1-----1---3-----3-----3---| 

   C                                
e|---------------------------------|
B|---1-----1-----1---1-----1-----1-|
G|-----0-----0---------0-----0-----|
D|---------------------------------|
A|-3-----3-----3---3-----3-----3---|
E|---------------------------------|


[Verse 2]

   F                                 Dm                      
e|---------------------------------|---------------------------------| 
B|---1-----1-----1---1-----1-----1-|---1-----1-----1---1-----1-----1-| 
G|-----0-----0---------0-----0-----|-----0-----0---------0-----0-----| 
D|---------------------------------|-0-----0-----0---0-----0-----0---| 
A|---------------------------------|---------------------------------| 
E|-1-----1-----1---1-----1-----1---|---------------------------------|  
                                                                     |   
   C                                 Am                              |(x3)
e|---------------------------------|---------------------------------| 
B|---1-----1-----1---1-----1-----1-|---1-----1-----1---1-----1-----1-| 
G|-----0-----0---------0-----0-----|-----0-----0---------0-----0-----| 
D|---------------------------------|---------------------------------| 
A|-3-----3-----3---3-----3-----3---|-0-----0-----0---0-----0-----0---| 
E|---------------------------------|---------------------------------| 

   F                                 G               
e|---------------------------------|---------------------------------|
B|---1-----1-----1---1-----1-----1-|---1-----1-----1---1-----1-----1-|
G|-----0-----0---------0-----0-----|-----0-----0---------0-----0-----|
D|---------------------------------|---------------------------------|
A|---------------------------------|---------------------------------|
E|-1-----1-----1---1-----1-----1---|-3-----3-----3---3-----3-----3---|

   C               E                 F              
e|---------------------------------|---------------------------------|
B|---1-----1-----1---1-----1-----1-|---1-----1-----1---1-----1-----1-|
G|-----0-----0---------0-----0-----|-----0-----0---------0-----0-----|
D|-----------------2-----2-----2---|---------------------------------|
A|-3-----3-----3-------------------|---------------------------------|
E|---------------------------------|-1-----1-----1---1-----1-----1---|

   G
e|---------------------------------|
B|---1-----1-----1---1-----1-----1-|
G|-----0-----0---------0-----0-----|
D|---------------------------------|
A|---------------------------------|
E|-3-----3-----3---3-----3-----3---|


[Refrain]

   C                F                 Dm              G 
e|---------------------------------|---------------------------------|
B|---1-----1-----1---1-----1-----1-|---1-----1-----1---1-----1-----1-|
G|-----0-----0---------0-----0-----|-----0-----0---------0-----0-----|
D|---------------------------------|-0-----0-----0-------------------|
A|-3-----3-----3-------------------|---------------------------------|
E|-----------------1-----1-----1---|-----------------3-----3-----3---|
                                                                     |
   E               Am                F               G               |(x2)
e|---------------------------------|---------------------------------| 
B|---1-----1-----1---1-----1-----1-|---1-----1-----1---1-----1-----1-| 
G|-----0-----0---------0-----0-----|-----0-----0---------0-----0-----| 
D|---------------------------------|---------------------------------| 
A|-----------------0-----0-----0---|---------------------------------| 
E|-0-----0-----0-------------------|-1-----1-----1---3-----3-----3---| 

   C                                
e|---------------------------------|
B|---1-----1-----1---1-----1-----1-|
G|-----0-----0---------0-----0-----|
D|---------------------------------|
A|-3-----3-----3---3-----3-----3---|
E|---------------------------------|
Suggest correction
Give kudos to tab author, rate the tab!
1 2 3 4 5
comments
print report bad tab
guest
You may want to rate the tab now too:
select rating
Wanna post a correction for this tab? Suggest correction