Oops, an error
Loading. Please wait.

Fear No Darkness Promised Child Chords

112 views 6 this week
no commentswrite comment
1 2 3 4 5
3 more votes to show rating
add to favorites
launch autoscroll
font size
0
reset
transpose
0
reset
display chords
guitar tuner
Autoscroll
slow
fast
+/-
esc
set tempo
stop
Help us to improve Ultimate-Guitar.com Take our survey!
×
Author
Difficulty
novice
Riff:
e|---------------------------------------------------------------------|
B|---------------------------------------------------------------------|
G|---------------------------------------------------------------------|
D|---------------------------------------------------------------------|
A|---------------------------------------------------------------------|
E|-0-0-0-0-12-12-12-12-0-0-0-0-5-5-7-7-8-8-8-8-8-8-8-8-7-7-7-7-7-7-7-7-|

e|---------------------------------------------------------|
B|-------------------------5-5-5-5-5-5-5-5-4-4-4-4-4-4-4-4-|
G|---4-----4-----4-----------------------------------------|
D|-6---4-6---4-6---2-2-4-4---------------------------------|
A|---------------------------------------------------------|
E|---------------------------------------------------------|


[Verse 1]

        E
hold my hand, rest assured
        C    B
I won't fail you
        E
calm my heart, I am here 
        C    B
right behind you

   E                   C      D
so wipe your tears, oh chosen one
E                  C       D
don't be scared no need to run


[Instrumental]

E C B


[Verse 2]

            E
if you will see though it's dark
                C         B
your heart will blind the night
           E
the two of us we shall relent
         C          B
when you shine your light


[Pre-Chorus]

    A               B
and I shall comfort you so
A               B
fear no evil as you know
A                  Am     B
I shall guide you, I will lead you


[Chorus]

E                 C#m
fear no darkness, promised child
A             B
fear no evil, promised child
E                      C#m
don't be scared, sweet promised child
A                Am
fear no darkness


[Instrumental]

E C D (x2)


[Verse 3]

        E
light a candle in the night
             C     B
that's how I found you
             E
that's how I know I will relent
          C   B
shine our way trough

           E
so hold my hand and rest assured
          C    B
you won't fail me
        E 
calm my heart and be my guide
      B      C
right behind me


[Pre-Chorus]

    A              B
and I will comfort you so
A               B
fear no evil as you know
A                  Am     B
I shall guide you, I will lead you


[Chorus]

E                 C#m
fear no darkness, promised child
A             B
fear no evil, promised child
E                      C#m
don't be scared, sweet promised child
A                Am B
fear no darkness


[Chorus]

E                 C#m
fear no darkness, promised child
A             B
fear no evil, promised child
E                      C#m
don't be scared, sweet promised child
A                Am
fear no darkness


[Outro]

E


[Stickpartiet]

e|----------------------------|
B|-9-9--7/9-9--7/9-9--7/9-9-9-|
G|-9-9--7/9-9--7/9-9--7/9-9-9-|
D|-9-9--7/9-9--7/9-9--7/9-9-9-|
A|----------------------------|
E|----------------------------|

e|--------------------------------------------------|
B|-10-10-10-10-10-10-10-10--10-10-10-10-10-10-10-10-|
G|-9--9--9--9--9--9--9--9---11-11-11-11-11-11-11-11-|
D|-10-10-10-10-10-10-10-10--12-12-12-12-12-12-12-12-|
A|--------------------------------------------------|
E|--------------------------------------------------|

************************************

| /  Slide up

************************************
Suggest correction
Give kudos to tab author, rate the tab!
1 2 3 4 5
comments
print report bad tab
guest
You may want to rate the tab now too:
select rating
Wanna post a correction for this tab? Suggest correction