Oops, an error
Loading. Please wait.

Solstice Tab

version 2
version 2

Whole song

Interactive

19 views 1 this week
no commentswrite comment
1 2 3 4 5
3 more votes to show rating
add to favorites
launch autoscroll
font size
0
reset
how to read this tab
guitar tuner
Autoscroll
slow
fast
+/-
esc
set tempo
stop
Help us to improve Ultimate-Guitar.com Take our survey!
×
Author
Difficulty
Capo
intermediate
7th fret
Björk - Solstice

Tuning: ECDGBD
Capo 7

||o----o|| = repeat, only once unless specified otherwise

For the majority of the song, I found it nearly impossible to determine any semblance of meter, so I didn't
include measure breaks for most of the song, sorry! To (somewhat) make up for it, I added timestamps.

[Part I]
  0:00                                                                                
D|-7-----3-------0-----0---3---0---0---3---5---3-------0-----0---3---0---0-----7-----3-------|
B|---8-----4-------3-----4---3-------4-----------4-------3-----4---3---------6---8-----4-----|
G|-------------5-----5-----------5-------------------5-----5-----------5---8---------------5-|
D|-----0-----0-------------------------------0-----0-------------------------------0-----0---|
C|-------------------------------------------------------------------------------------------|
E|-------------------------------------------------------------------------------------------|

  0:27
D|-7-----3-------0-----0---3---0---0-----7-----3-------0-----0---3---0---0---3---5---3-------|
B|---8-----4-------3-----4---3---------6---8-----4-------3-----4---3-------4-----------4-----|
G|-------------5-----5-----------5---8---------------5-----5-----------5-------------------5-|
D|-----0-----0-------------------------------0-----0-------------------------------0-----0---|
C|-------------------------------------------------------------------------------------------|
E|-------------------------------------------------------------------------------------------|

  0:54
D|-7-----3-------0-----0---3---0---0-----7-----3-------0-----0---3---0---0-----7-----3-------|
B|---8-----4-------3-----4---3---------6---8-----4-------3-----4---3---------6---8-----4---1-|
G|-------------5-----5-----------5---8---------------5-----5-----------5---8-----------------|
D|-----0-----0-------------------------------0-----0-------------------------------0-----0---|
C|-------------------------------------------------------------------------------------------|
E|-------------------------------------------------------------------------------------------|

[Part II]                                       [Part III]
  1:19                               Play 3x     1:42                            Play 4x
D|-------------||---------------------------|| ||---------------------------------------||
B|-------------||o---4---4-------4---4-----o|| ||o---4---4-------4---4-----------------o||
G|---0-----0---||---------------------------|| ||----------------------------0-----0----||
D|-----3-----3-||------------1-----------1--|| ||------------1-----------1-----3-----3--||
C|-0-----0-----||o-3---3---3---3---3---3---o|| ||o-3---3---3---3---3---3---0-----0-----o||
E|-------------||---------------------------|| ||---------------------------------------||

[Part IV]
  2:22
D|-7-----3-------0-----0---3---0---0-----7-----3-------0-----0---3---0---0-----7-----3-------|
B|---8-----4-------3-----4---3-------------8-----4-------3-----4---3---------6---8-----4-----|
G|-------------5-----5-----------5---8---------------5-----5-----------5---8---------------5-|
D|-----0-----0-------------------------------0-----0-------------------------------0-----0---|
C|-------------------------------------------------------------------------------------------|
E|-------------------------------------------------------------------------------------------|

  2:48
D|-7-----3-------7-----3-------0-----0---3---0---0-----7-----3-------|
B|---8-----4-------8-----4-------3-----4---3---------6---8-----4---1-|
G|-------------5-------------5-----5-----------5---8-----------------|
D|-----0-----0-------0-----0-------------------------------0-----0---|
C|-------------------------------------------------------------------|
E|-------------------------------------------------------------------|

[Part V] 
  3:07 
D||---------------------------------------------------------------------------------------||
B||o----------------4---4-------4---4-------4---4-------------------4---4-------4---4----o||
G||----0-----0------------------------------------------0-----0---------------------------||
D||------3-----3------------1-----------1-----------1-----3-----3-----------1-----------1-||
C||o-0-----0------3---3---3---3---3---3---3---3---3---0-----0-----3---3---3---3---3---3--o||
E||---------------------------------------------------------------------------------------||


D|-------------------------|
B|---4---4-----------------|
G|---------------0-----0---|
D|-----------1-----3-----3-|
C|-3---3---3---0-----0-----|
E|-------------------------|



[Part VI]
  4:00                             Play 3x
D|-7-----3-------0-----0---3---0---0------||
B|---8-----4-------3-----4---3---------6-o||
G|-------------5-----5-----------5---8----||
D|-----0-----0----------------------------||
B|---------------------------------------o||
E|----------------------------------------||

[Lyrics]

When your eyes
Pause on the ball
That hangs on the third branch from the star
You remember why it is dark
And why it gets light again

The earth like the hearts
Slopes in it's seat
And like that it travels
Along an elliptical path
Drawn into the darkness

An unpolished pearl
In the sky black palm of hands
Flickering sun flame

And then you remember
That you yourself
You are a light bearer, a light bearer
Receiving radiance from others
Flickering sun flame
Unpolished earth
In the palm of hands
Suggest correction
Give kudos to tab author, rate the tab!
1 2 3 4 5
comments
print report bad tab
guest
You may want to rate the tab now too:
select rating
Wanna post a correction for this tab? Suggest correction