Oops, an error
Loading. Please wait.

Night Knuckles Tab

37 views 1 this week
no commentswrite comment
1 2 3 4 5
3 more votes to show rating
add to favorites
launch autoscroll
font size
0
reset
how to read this tab
guitar tuner
Autoscroll
slow
fast
+/-
esc
set tempo
stop
Help us to improve Ultimate-Guitar.com Take our survey!
×
Author
Difficulty
novice
[Intro]

e|----9-------------------5-----7--------------------------|
B|------9-----------------5-----7--------------------------|
G|--------9---------------6-----8--------------------------|
D|------------------------7-----9--------------------------|
A|------------------------7-----9--------------------------|
E|------------------------5-----7--------------------------|


[Verse]

e|----0----5-----9-----5-----------------------------------------------|
B|----0----5-----9-----5-----------------------------------------------|
G|----0----6-----10----6-----------------------------------------------|
D|----2----7-----11----7-----------------------------------------------|
A|----2----7-----9-----7-----------------------------------------------|
E|----0----5-----9-----7-----------------------------------------------|

palm mute most of it
Suggest correction
Give kudos to tab author, rate the tab!
1 2 3 4 5
comments
print report bad tab
guest
You may want to rate the tab now too:
select rating
Wanna post a correction for this tab? Suggest correction