Oops, an error
Loading. Please wait.

På Låtsas Och På Riktigt Chords

4 views 1 this week
no commentswrite comment
1 2 3 4 5
3 more votes to show rating
add to favorites
launch autoscroll
font size
0
reset
transpose
0
reset
display chords
guitar tuner
Autoscroll
slow
fast
+/-
esc
set tempo
stop
Help us to improve Ultimate-Guitar.com Take our survey!
×
Author
[VERSE 1]
N.C.
Vi skulle spela när vårt bolag hade fest i Umeå med Komeda Fivel och andra
D-E-Bm
När vi åt frukost ropa Henke att han hade glömt ta med sig brorsans gura Martin
Gm
Då lacka Martin och sa "Fan va dåligt erkänn du var bakis och du strunta i guran"
Bm
Dom börja käfta med varandra och då greppa Martin saltkaret och salta på Henke

 [STICK 1]
 Bm D A E Bm A Bm
e|:-----------------------------------------------------|
B|:-----------------------------------------------------|
G|:-------------2----4--2-------------------------------|
D|:-----0--2-4-----4-------4-2--0----------0-2--0-------|
A|:--2-----------------------------2-0--2----------0-2--|
E|:-----------------------------------------------------|
Aaaah-aah-ah etc.

[VERSE 2]
Bm
På festen hade vi bestämt att spela tidsmasken en balad som var nästan kvartslång

Men några dagar innan hade Lina sagt i telefonen "tidsmaskinen, fy fan"
Gm
Vi hade pratat länge sen la på men efter sju minuter ringde hon upp mig
Bm
Hon lämna luren till sin kille som sa att tidsmaskinen inte funka i Umeå

 [STICK 1]
 Bm D A E Bm A Bm
e|:-----------------------------------------------------|
B|:-----------------------------------------------------|
G|:-------------2----4--2-------------------------------|
D|:-----0--2-4-----4-------4-2--0----------0-2--0-------|
A|:--2-----------------------------2-0--2----------0-2--|
E|:-----------------------------------------------------|
Aaaah-aah-ah etc.

[VERSE 3]
Bm
På scenen tänkte vi ha på oss röda halsdukar så att vi liknade pionjärer
D-E-Bm
Men jag var velig för jag tänkte att vi kanske skulle verka som den crazy orkestern
D-E-Bm
Dessutom Lina var emot det, hennes killes farfar hade suttit fången i gulag
D-E-Bm
I alla fall så spela vi baladen sen gick jag omkring och hoppades på en ryggdunk

[STICK 2]
D-E-Bm D A E
Då kom det en kille och fråga "Är ni på låtsas eller är ni på riktigt?"
Bm D A E Bm N.C.
Då sa jag "Du, kan du fatta, vi är på låtsas och vi är på riktigt"

[END]
Bm
På låtsas och på riktigt
Bm
På låtsas och på riktigt
Bm
På låtsas och på riktigt
Bm
På låtsas och på riktigt
Bm
På låtsas och på riktigt
Bm
På låtsas och på riktigt
Bm
På låtsas och på riktigt
Bm
På låtsas och på riktigt
Bm
På låtsas och på riktigt

(Bm) Background vocals:
På låtsas och på riktigt (på låtsas och på riktigt)
(Bm) Background vocals:
På låtsas och på riktigt (på låtsas och på riktigt)
(Bm) Background vocals:
På låtsas och på riktigt (på låtsas och på riktigt)
(Bm) Background vocals:
På låtsas och på riktigt (på låtsas och på riktigt)

Bm Bm
På låtsas och på riktigt
Suggest correction
Give kudos to tab author, rate the tab!
1 2 3 4 5
comments
print report bad tab
guest
You may want to rate the tab now too:
select rating
Wanna post a correction for this tab? Suggest correction