Oops, an error
Loading. Please wait.

快盗ルビイ Bass Tab

25 views 1 this week
no commentswrite comment
1 2 3 4 5
3 more votes to show rating
add to favorites
launch autoscroll
font size
0
reset
guitar tuner
Autoscroll
slow
fast
+/-
esc
set tempo
stop
Help us to improve Ultimate-Guitar.com Take our survey!
×
Author
Difficulty
novice
Song : https://www.youtube.com/watch?v=IUyalT9cBvk


[Intro]

G|--------------|-------------|-------------|-------------------|
D|--------------|-------------|-------------|-------------------|
A|--------------|-------------|-------------|----------2--2--2--|
E|--0---0-0---x-|-4---4-4---x-|-5---5-5---x-|-2--2--2-----------|


G|--------------|-------------|----------4------|--------------|
D|--------------|-------------|------------4-2--|-----2-----2--|
A|--------------|-------------|-------2---------|---2---2-4----|
E|--0---0-0---x-|-4---4-4---x-|-5---5-----------|--------------|


G|--------------|-------------|-------------|------------9---------|--------------|
D|--4---4-------|-6---6-------|-4---4-------|-2------2/9--------9\-|-2---------2--|
A|--------2---2-|-------4---4-|-------2---2-|----------------------|---------2----|
E|--------------|-------------|-------------|----------------------|--------------|


[Verse 1]

G|---------|---------|---------|---------------|
D|---------|---------|---------|---------------|
A|---------|---------|---------|--2---2--2---2-|
E|--0---0--|--3---3--|--2---2--|-----------2---|


G|--------|---------|---------|---------4-3-2-1--|-------------------|-------------------------|
D|--------|---------|---------|------------------|--0-1--------------|------5-6---1-2----------|
A|--------|--4---4--|---------|--2---2-----------|--------2-3--------|--4---------------4------|
E|-0---0--|---------|--2---2--|------------------|--------------3-4--|----------------------3--|


G|-----------------------|-------------------|------------------|
D|-----------------------|-------------------|------------------|
A|------3-4---0-1--------|--2-2-2-2-2-2-2-2--|--2-2-2-2-2-2-----|
E|--2---------------1-2--|-------------------|--------------1-2-|


[Chorus]

G|--------------|--------------|--------------|---------------|
D|--------------|--------------|------------4-|-2-----2-----2-|
A|--------------|----------6---|-------2--2---|-----2---2-4---|
E|-0---0-0--0-2-|-4---4-4----4-|-5---5--------|---------------|


G|--------------|--------------|---------------|---------------|
D|------------4-|-2----------6-|-4-----4-2-----|-----------1---|
A|-0---0-2--2---|-----x-4--4---|-----4-----4-1-|-2-----2-4---2-|
E|--------------|--------------|---------------|-----2---------|


G|--------------|--------------|--------------|---------------|
D|--------------|--------------|------------4-|-2---2-2-----2-|
A|--------------|------------6-|-------2--2---|---------2-4---|
E|-0---0-0--0-2-|-4---4-4--4---|-5---5--------|---------------|


G|-------------|--------------|-------------|-------------9------\-|
D|-4---4-------|-6---6----6---|-4---4----4--|--2------2/9----------|
A|-------2---2-|-------4----4-|-------2-----|----------------------|
E|-------------|--------------|-------------|----------------------|


[Bridge]

G|-------------|---------------|-------------|----------------|
D|-------------|---------------|-----4-2-----|----------------|
A|-2---2-------|-----------0-4-|-2-----------|------------x-7-|
E|-------0--4--|--5----x-2-----|----------0--|--5--5--x-5-----|


G|----------|-----------|------------------|------------|-------------|------------------|
D|----------|-----------|--5-5-5-5-5-------|---------4--|----------4--|------------4-1---|
A|-4---4----|--2---2----|-------------5----|-------4----|--------4----|--x-2-2-2-2-----2-|
E|-------2--|--------4--|----------------3-|-x-2-2------|--x-2-2------|------------------|


[Instrumental]

G|--------------|--------------|--------------|---------------|
D|--------------|--------------|--------------|-2---2-2-----2-|
A|--------------|------------6-|-0---0-0--0-0-|---------2-4---|
E|-0---0-0--0-2-|-4---4-4--4---|--------------|---------------|


G|--------------|--------------|-------------|------------9---------|-------------|
D|-4---4------4-|-6---6------6-|-4---4----4--|--2-----2/9--------9\-|-2---------2-|
A|-------2--2---|-------4--4---|-------2-----|----------------------|---------2---|
E|--------------|--------------|-------------|----------------------|-------------|


[Verse 2]

G|----------|---------|---------|---------------|
D|----------|---------|---------|---------------|
A|-2--------|---------|---------|--2---2----0-2-|
E|---0---0--|--3---3--|--2---2--|---------2-----|


G|--------|---------|---------|---------4-3-2-1--|-------------------|-------------------------|
D|--------|---------|---------|------------------|--0-1--------------|------5-6---1-2----------|
A|--------|--4---4--|---------|--2---2-----------|--------2-3--------|--4---------------4------|
E|-0---0--|---------|--2---2--|------------------|--------------3-4--|----------------------3--|


G|-----------------------|-------------------|----------------4--|
D|-----------------------|-------------------|--------------4----|
A|------3-4---0-1--------|--2-2-2-2-2-2-2-2--|--2-2-2-2-2-2------|
E|--2---------------1-2--|-------------------|-------------------|


[Chorus]

G|--------------|--------------|--------------|----------------|
D|--------------|--------------|------------4-|-2---2-2--------|
A|--------------|------------6-|-------2--2---|---------2------|
E|-0---0-0--0-2-|-4---4-4--4---|-5---5--------|-----------2-4--|


G|--------------|--------------|----------------|-----------------|
D|------------4-|-2---2------6-|-4--4-4-4-2-----|-------------1---|
A|-0---0-2--2---|-------4--4---|------------4-1-|-2-2-2-2-2-4---2-|
E|--------------|--------------|----------------|-----------------|


G|--------------|--------------|--------------|---------------|
D|--------------|--------------|------------4-|-2---2-2-----2-|
A|--------------|------------6-|-------2--2---|---------2-4---|
E|-0---0-0--0-2-|-4---4-4--4---|-5---5--------|---------------|


G|-------------|-------------|------------------|-----4-6-4-----|
D|-4---4-------|-6---6-------|-4--4--4----------|-2---------6---|
A|-------2---2-|-------4---4-|----------2--2--2-|-------------7-|
E|-------------|-------------|------------------|---------------|


G|-------------|-------------|--4--3--2--1--0--------|-----|-----|-----|-----|
D|-4---4-------|-6---6-------|-----------------4-----|-----|-----|-----|-----|
A|-------2---2-|-------4--4--|-----------------------|--7--|-----|--7--|-----|
E|-------------|-------------|--------------------5--|-----|--5--|-----|--5--|


[Outro]

G|----------------|----------------|----------------|------------------|--------------------|
D|--2-------------|---------2/-14--|----------------|-------14---------|--------------------|
A|----------------|----------------|--------r-------|-----------14-----|----------r---------|
E|----------------|----------------|----------------|--------------12--|--------------------|


G|----------------|----------------|----------------|------------------|------------|
D|----------2/-14-|----------------|----------------|------------------|------------|
A|----------------|--------r-------|---------14\-7--|------9-----------|------------|
E|----------------|----------------|----------------|-----------7---7--|---0-0-0-0--|



*********************

| / : slide up
| \ : slide down
| x : dead note
| r : rest

*********************

in regular sequence!
Suggest correction
Give kudos to tab author, rate the tab!
1 2 3 4 5
comments
print report bad tab
guest
You may want to rate the tab now too:
select rating
Wanna post a correction for this tab? Suggest correction