Oops, an error
Loading. Please wait.

Prelude In C Minor Op 28 No 20 Ukulele Chords

82 views 12 this week
no commentswrite comment
1 2 3 4 5
3 more votes to show rating
add to favorites
launch autoscroll
font size
0
reset
transpose
0
reset
simplify chords
display chords
guitar tuner
Autoscroll
slow
fast
+/-
esc
set tempo
stop
Help us to improve Ultimate-Guitar.com Take our survey!
×
Author
Difficulty
advanced
Chopin Prelude in C Minor op. 28 no.20 Ukulele tabbed by Tor Erik Grønås tor.erik.g1982@gmail.com
Standard CGEA Ukulele Tuning
This is the whole piece, its played very slowly and more and more softly towards the end.


Cm      Fm      Em  G   Cm7     G#      C#      Cm6     G       C#13-9  C7      G7      Cm7     Bm7     G
10------11------10------6-------6-------8-------6--4----3-------5-------7-------10------6-------5-------10
11------8-------7--7----3-------4-------4-------5-------4-------5-------6-------7-------3-------2-------7
12------8-------7--7----3-------3-------5-------7-------3-------5-------0-------7-------3-------2-------7
0-------10------9--7----5-------5-------6-------5--3----x-------4---------------x--10---5-------3-------7

Em7 G   G
14--12--10
10------7
11------7
12------7

Cm      Fm7     C9 D13  Gm      G#7     D7b5    G  A5   G7      Cm      C#7     Csus2   Cm      G#5     C#
6-------6-------5--5----5-------3-------5-------2--0----x-------3-----------------------3-------x-------x
3-------4-------3--2----3-------3-------2-------3--0----3-------3-------4-------3-------3-------x-------1
0-------0-------0--0----2-------0-------0-------2-------5-------3-------5-------2--5----3-------3-------1
5-------5-------4--4----3-------1-------1-------0-------4-------0-------5-------5-------5-------1-------1

G       C5
x-------x
x-------x
3--2----0
0h4-----0

Cm      Fm7     C9 D13  Gm      G#7     D7b5    G  A5   G7      Cm      C#7     Csus2   Cm      G#5     C#
6-------6-------5--5----5-------3-------5-------2--0----x-------3-----------------------3-------x-------x
3-------4-------3--2----3-------3-------2-------3--0----3-------3-------4-------3-------3-------x-------1
0-------0-------0--0----2-------0-------0-------2-------5-------3-------5-------2--5----3-------3-------1
5-------5-------4--4----3-------1-------1-------0-------4-------0-------5-------5-------5-------1-------1

G       Cm
x-------3
x-------3
3--2----3
0h4-----0

Suggest correction
Give kudos to tab author, rate the tab!
1 2 3 4 5
comments
print report bad tab
guest
You may want to rate the tab now too:
select rating
Wanna post a correction for this tab? Suggest correction