Oops, an error
Loading. Please wait.

Jai Rien Prévu Pour Demain Tab

by Tryo
31 views 1 this week
no commentswrite comment
1 2 3 4 5
3 more votes to show rating
add to favorites
launch autoscroll
font size
0
reset
how to read this tab
guitar tuner
Autoscroll
slow
fast
+/-
esc
set tempo
stop
Help us to improve Ultimate-Guitar.com Take our survey!
×
Author
Difficulty
intermediate
[Intro]

                                                                           H
|-------------------------------------------------------------------------(12)------|
|------------------------------------------------------------------------(12)-------|
|---/9---7-5--/9-9-7-9----/9---7-5--/9-9-7-9-------/9---7-5--/9-9-7-9---(12)--------|   x2
|---/9---7-5--/9-9-7-9----/9---7-5--/9-9-7-9-------/9---7-5--/9-9-7-9---------------|
|---/7---5-3--/7-7-5-7----/7---5-3--/7-7-5-7-------/7---5-3--/7-7-5-7---------------|
|----------------------------------------------000----------------------------------|

[Verse]

|---7--7--x--x--7--7--x--x--7--7--x--x--7--7--x--x--------------------------------------------------|
|---8--8--x--x--8--8--x--x--8--8--x--x--8--8--x--x--------------------------------------------------|
|---9--9--x--x--9--9--x--x--9--9--x--x--9--9--x--x--6--6--x--x--6--6--x--x--6--6--x--x--6--6--x--x--|
|---9--9--x--x--9--9--x--x--9--9--x--x--9--9--x--x--7--7--x--x--7--7--x--x--7--7--x--x--7--7--x--x--|
|---7--7--x--x--7--7--x--x--7--7--x--x--7--7--x--x--7--7--x--x--7--7--x--x--7--7--x--x--7--7--x--x--|
|---------------------------------------------------5--5--x--x--5--5--x--x--5--5--x--x--5--5--x--x--|


[Solo]

                                       H
|-----------------------------------------(12)--7--10~---------------------------|
|--10b--10b--h8--10b--7-7-/8--7-5-5-5~---(12)-----------8-10-8-10b-8p-8-10-------|
|---------------------6-6-/7--6-4-4-4~--(12)------------------------------7-h9~--|
|--------------------------------------------------------------------------------|
|--------------------------------------------------------------------------------|
|--------------------------------------------------------------------------------|

|----------------------------------------7-h8-10-/12-10-12-14-15-14-12--17b17b15-17b-------|
|---------------8-8~-h10/8------7-8---10---------------------------------------------------|
|-----7---7-9~-----------------------------------------------------------------------------|
|7-h9---9----------------------------------------------------------------------------------|
|------------------------------------------------------------------------------------------|
|------------------------------------------------------------------------------------------|


H = harmonic
b = bend
h = hamer on
p = pull off
~ = vibrato
Suggest correction
Give kudos to tab author, rate the tab!
1 2 3 4 5
comments
print report bad tab
guest
You may want to rate the tab now too:
select rating
Wanna post a correction for this tab? Suggest correction