Oops, an error
Loading. Please wait.

You Better Run Tab

version 1
version 1

Solo

  • One of Motorheads best songs of course all of thei... Show more

Whole song

28 views 1 this week
no commentswrite comment
1 2 3 4 5
3 more votes to show rating
add to favorites
launch autoscroll
font size
0
reset
how to read this tab
guitar tuner
Autoscroll
slow
fast
+/-
esc
set tempo
stop
Help us to improve Ultimate-Guitar.com Take our survey!
×
Author
Difficulty
Tuning
novice
D# G# C# F# A# D#
About this tab version
One of Motorheads best songs of course all of their songs are great. This one has a very catchy rhythm and a very whole sounding guitar solo that is right in your face. This tab is for that epic guitar sweetness. Was this info helpful? Yes No
|||  MOTORHEAD!!  |||
"You Better Run" off the Album "March or Die"
 
(This tab covers the main guitar solo)
 
[SECTION 1]
D#|---------------------------------------------------------------------------|
A#|----------------------------------/--17-----15b16---15~--15~---------------|
F#|--14b5----14b15----12----12~\----------------------------------------------|
C#|----------------------14---------------------------------------------------|
G#|---------------------------------------------------------------------------|
D#|---------------------------------------------------------------------------|


D#|---------------------------------------------------------------------------|
A#|--15--15\14--14--14\12--12--12---------------------------------------------|
F#|---------------------------------12b13---9~--------------------------------|
C#|---------------------------------------------------------------------------|
G#|------------------------------------------------10-12-12-10-11-12-10\7-----|
D#|---------------------------------------------------------------------------|

[SECTION 2]
D#|---------------------------------------------------------------------------|
A#|---------------------------------------------------------------------------|
F#|---------------------------------------------------------------------------|
C#|---9b10--9b10--9b10--9b10--10-10-10-10-10b9p7-9~---------------------------|
G#|---------------------------------------------------------------------------|
D#|---------------------------------------------------------------------------|
                                                            
D#|---------------------------------------------------------------------------|
A#|-(speed pick & go crazy with cry baby)--15-15-12-12-(x8)--17b19--17~-------|
F#|--------------------------------------------------(stop speed pick)--------|
C#|---------------------------------------------------------------------------|
G#|---------------------------------------------------------------------------|
D#|---------------------------------------------------------------------------|


[SECTION 3]
D#|---------------------------------------------------------------------------|
A#|--20---20b21b20---17~--17~--17~--17~--20-17~\----17\-/17\-/17--20b21--17---|
F#|---------------------------------------------------------------------------|
C#|---------------------------------------------------------------------------|
G#|---------------------------------------------------------------------------|
D#|---------------------------------------------------------------------------|

D#|---------------------------------------------------------------------------|
A#|---------------------------------------------------------------------------|
F#|--18b19--16b15--13---------(repeat x2)-------------------------------------|
C#|-------(keep finger on 15, bend up the18 and hit 15 on the way down--------|
G#|--------it will sound like its on 16)--------------------------------------|
D#|---------------------------------------------------------------------------|

D#|---------------------------------------------------------------------------|
A#|---------------------------------------------------------------------------|
F#|----------12b13------------------------------------------------------------|
C#|---14----------------------------------------------------------------------|
G#|---------------------------------------------------------------------------|
D#|---------------------------------------------------------------------------|

[SECTION 4]
D#|-----------------12--------------------------------------------------------|
A#|--12--13--14---------14--13--12~\------------------------------------------|
F#|---------------------------------------------------------------------------|
C#|-----------------------------------------9b10------------------------------|
G#|---------------------------------------------------------------------------|
D#|---------------------------------------------------------------------------|

D#|---------------------------------------------------------------------------|
A#|----------------------------(pinch)-17~-17~-17~-17~-17~--------------------|
F#|-----------------7-9-9/12--------------------------------------------------|
C#|---9b10-9b10-7-9-----------------------------------------------------------|
G#|---------------------------------------------------------------------------|
D#|---------------------------------------------------------------------------|

 
************************************

| p  Pull-off
| b  Bend
| /  Slide up
| \  Slide down
| ~  Vibrato 

************************************
Suggest correction
Give kudos to tab author, rate the tab!
1 2 3 4 5
comments
print report bad tab
guest
You may want to rate the tab now too:
select rating
Wanna post a correction for this tab? Suggest correction