Oops, an error
Loading. Please wait.

Fc Nordsjælland Sangen Chords

31 views 1 this week
no commentswrite comment
1 2 3 4 5
3 more votes to show rating
add to favorites
launch autoscroll
font size
0
reset
transpose
0
reset
simplify chords
display chords
guitar tuner
×
Best way to learn
"Fc Nordsjælland Sangen"
Autoscroll
slow
fast
+/-
esc
set tempo
stop
About this tab version
The theme song of Football Club Nordsjaelland. Was this info helpful? Yes No
FCN SANGEN
 
[Intro]

   B              A   E     B            A E B
e|--------------------------------------------------|
B|----------------2---5------------------2-5--------|
G|-4--------------2---4-----4------------2-4-4---4--|
D|-4------------------------4----------------4---4--| x4
A|-2--5-4-2-----------------2--5-4-2-------------2--|
E|----------5-4----------------------5-4------------|


[VERSE ONE]

                A
Højt mod nord i sjælens land 
   E             B
En park i Farums eje 
                    A            E                        B
Hvor tigeren bor og alle mand de kæmper for Nordsjællands trøje 
   Gmaj7                                     A
Nu snører vi støvlen, lad kampen begynde mod nord hvor der burde være koldt 
    Gmaj7              A                  E                F#
Med varme og glød, der tæmmer vi kuglen i kampen for bedre fodbold 


[CHORUS]

      B          A     E          B
Vi er FC Nordsjælland, FC Nordsjælland 
                     A
Vi går gennem ild og vand 
    E          B
For FC Nordsjælland 
A                   E
Kan tigeren tæmmes, gu' kan den ej 
A                   E
Den brøler fodbold    den rigtige vej 
           

[INSTRUMENTAL]

   B              A   E     B            A E B
e|--------------------------------------------------|
b|----------------2---5------------------2-5--------|
g|-4--------------2---4-----4------------2-4-4---4--|
d|-4------------------------4----------------4---4--| x2
a|-2--5-4-2-----------------2--5-4-2-------------2--|
e|----------5-4----------------------5-4------------|


[VERSE TWO]

Gmaj7                                        A
Nu snører vi støvlen, lad kampen begynde mod nord hvor der burde være koldt 
      Gmaj7              A
nogle spiller italiensk, andre spiller norsk 
    E               F#
Men vi spiller bare fodbold 


[CHORUS]
 
      B          A     E          B
Vi er FC Nordsjælland, FC Nordsjælland 
                     A
De går gennem ild og vand 
    E          B
For FC Nordsjælland 
      B          A     E          B
Vi er FC Nordsjælland, FC Nordsjælland
      B           A
Og vi kæmper alle mand
    E          B
For FC Nordsjælland
    A               E
Kan tigeren tæmmes, gu' kan den ej
A                  E              B   A E B
Den brøler fodbold    den rigtige vej 
A   E      B                      A E B  A E
Den brøler fodbold den rigtige vej
B
Den rigtige vej 
Suggest correction
Give kudos to tab author, rate the tab!
1 2 3 4 5
comments
print report bad tab
guest
You may want to rate the tab now too:
select rating
Wanna post a correction for this tab? Suggest correction