Oops, an error
Loading. Please wait.

Tralala Lilla Molntuss Kom Hit Skall Du Få En Puss Bass Tab

103 views 9 this week
no commentswrite comment
1 2 3 4 5
3 more votes to show rating
add to favorites
launch autoscroll
font size
0
reset
guitar tuner
Autoscroll
slow
fast
+/-
esc
set tempo
stop
Help us to improve Ultimate-Guitar.com Take our survey!
×
Author
Difficulty
novice
Tuning : 

G
D
A
Eb (D#)


Bass Start - 00:06


[Intro]

|-------------------|-------------------|-------------------|-------------------|
|--5-5-5-5----------|-------------------|--5-5-5-5----------|-------------------|
|----------5-5-5-5--|--3-3-3-3-3-3-3-3--|----------5-5-5-5--|--3-3-3-3-3-3-3-3--|
|-------------------|-------------------|-------------------|-------------------|


[Verse 1]

|------2------------|-------------------|------2------------|-------------------|
|--0-0---0-----4----|-------------------|--0-0---0-----4----|----------------0--|
|----------2-2---2--|-------------------|----------2-2---2--|-------------------|
|-------------------|--4-4-4-4-4-4-4-4--|-------------------|--4-4-4-4-4-6-6----|


|------2------------|-------------------|------2------------|-------------------|
|--0-0---0-----4----|----------------0--|--0-0---0-----4----|-------------------|
|----------2-2---2--|-------------------|----------2-2---2--|-------------------|
|-------------------|--4-4-4-4-4-4-4----|-------------------|--4-4-4-4-4-4-4-4--|


[Chorus]

|-------------------|-------------------|-------------------|-------------------|
|--5-5-5-5----------|--------------2-3--|--5-5-5-5----------|------------2-2-0--|
|----------5-5-5-5--|--3-3-3-3-3-3------|----------5-5-5-5--|--3-3-3-3-3--------|
|-------------------|-------------------|-------------------|-------------------|


|-------------------|-------------------|-------------------|-------------------|
|--5-5-5-5----------|-------------------|--5-5-5-5----------|-------------------|
|----------5-5-5-5--|--3-3-3-3-5-3-5-3--|----------5-5-5-5--|--3-3-3-3-3-3-3-3--|
|-------------------|-------------------|-------------------|-------------------|


[Verse 2]

|----------------|----------------|----------------|----------------|
|----------------|----------------|----------------|----------------|
|--------r-------|--------r-------|--------r-------|--------r-------|
|----------------|----------------|----------------|----------------|


|----------------|----------------|----------------|----------------|
|----------------|----------------|----------------|----------------|
|--------r-------|--------r-------|--------r-------|--------r-------|
|----------------|----------------|----------------|----------------|


[Chorus]

|-------------------|-------------------|-------------------|-------------------|
|--5-5-5-5----------|-------------------|--5-5-5-5----------|----------2-2-0-0--|
|----------5-5-5-5--|--3-3-3-3-3-3-5-3--|----------5-5-5-5--|--3-3-3-3----------|
|-------------------|-------------------|-------------------|-------------------|


|-------------------|-------------------|-------------------|-------------------|
|--5-5-5-5----------|--------------2-3--|--5-5-5-5----------|-------------------|
|----------5-5-5-5--|--3-3-3-3-3-3------|----------5-5-5-5--|--3-3-3-3-3-3-3-3--|
|-------------------|-------------------|-------------------|-------------------|


[Bridge]

|----------------|----------------|----------------|----------------|
|----------------|----------------|----------------|----------------|
|----------------|----------------|----------------|--------r-------|
|--4-------------|--1-------------|--0-------------|----------------|


|----------------|----------------|----------------|----------------|
|----------------|----------------|----------------|----------------|
|----------------|----------------|----------------|----------------|
|--4-------------|--1-------------|--4-------------|--0-------------|


|-------------------|-------------------|-------------------|-------------------|
|--5-5-5-5-5-5-5-5--|-------------------|-------------------|-------------------|
|-------------------|--7-7-7-7-7-7-7-7--|--6-6-6-6-6-6-6-6--|--6-6-6-6-6-6-6-6--|
|-------------------|-------------------|-------------------|-------------------|


|-------------------|-------------------|-------------------|-------------------|
|--5-5-5-5-5-5-5-5--|-------------------|--5-5-5-5-5-5-5-5--|-------------------|
|-------------------|--7-7-7-7-7-7-7-7--|-------------------|--6-6-6-6-6-6-6-6--|
|-------------------|-------------------|-------------------|-------------------|


[Verse 3]

|------2------------|-------------------|------2------------|---------------------|
|--0-0---0-----4----|-------------------|--0-0---0-----4----|---------------------|
|----------2-2---2--|-------------------|----------2-2---2--|---------------------|
|-------------------|--4-4-4-4-4-4-4-4--|-------------------|--4-4-4-4-4-4-4/15\--|


|-------------------|------------------|------2------------|-------------------|
|------7-------4----|------------------|--0-0---0-----4----|-------------------|
|--5-5---5-2-2---2--|------------------|----------2-2---2--|-------------------|
|-------------------|--4-4-4-4-4-4-4\--|-------------------|--4-4-4-4-4-4-4-4--|


[Chorus]

|-------------------|-------------------|-------------------|-------------------|
|--5-5-5-5----------|--------------2-3--|--5-5-5-5----------|------------0-0-0--|
|----------5-5-5-5--|--3-3-3-3-3-3------|----------5-5-5-5--|--3-3-3-3-3--------|
|-------------------|-------------------|-------------------|-------------------|


|-------------------|-------------------|-------------------|-------------------|
|--5-5-5-5----------|----------2-2-0-0--|--5-5-5-5----------|-------------------|
|----------5-5-5-5--|--3-3-3-3----------|----------5-5-5-5--|--3-3-3-3-2-1-0-0--|
|-------------------|-------------------|-------------------|-------------------|


[Pre-Chorus]

|-------------------|-------------------|-------------------|-------------------|
|-------------------|-------------------|-------------------|-------------------|
|----------5-5-5-5--|--3-3-3-3-3-3-3-3--|----------5-5-5-5--|--3-3-3-3-2-1-0-0--|
|--4-4-4-4----------|-------------------|--4-4-4-4----------|-------------------|


|-------------------|-------------------|-------------------|-------------------|
|-------------------|-------------------|-------------------|--------------2-3--|
|----------5-5-5-5--|--3-3-3-3-3-3-3-3--|----------5-5-5-5--|--3-3-3-3-3-3------|
|--4-4-4-4----------|-------------------|--4-4-4-4----------|-------------------|


[Chorus]

|-------------------|-------------------|-------------------|-------------------|
|--5-5-5-5----------|-------------------|--5-5-5-5----------|--------2-2-2-2-2--|
|----------5-5-5-5--|--3-3-3-3-3-3-3-3--|----------5-5-5-5--|--3-3-3------------|
|-------------------|-------------------|-------------------|-------------------|


|-------------------|-------------------|-------------------|-------------------|
|--5-5-5-5----------|-------------------|--5-5-5-5----------|-------------------|
|----------5-5-5-5--|--3-3-3-3-3-3-3-3--|----------5-5-5-5--|--3-3-3-3-3-3-3-3--|
|-------------------|-------------------|-------------------|-------------------|


[Bridge]

|----------------|----------------|----------------|----------------|
|----------------|----------------|----------------|----------------|
|----------------|----------------|----------------|--------r-------|
|--4-------------|--1-------------|--0-------------|----------------|


|----------------|----------------|----------------|----------------|
|----------------|----------------|----------------|----------------|
|----------------|----------------|----------------|----------------|
|--4-------------|--1-------------|--4-------------|--0-------------|


|-------------------|-------------------|-------------------|-------------------|
|--5-5-5-5-5-5-5-5--|-------------------|-------------------|-------------------|
|-------------------|--7-7-7-7-7-7-7-7--|--6-6-6-6-6-6-6-6--|--6-6-6-6-6-6-6-6--|
|-------------------|-------------------|-------------------|-------------------|


|-------------------|-------------------|-------------------|-------------------|
|--5-5-5-5-5-5-5-5--|-------------------|--5-5-5-5-5-5-5-5--|-------------------|
|-------------------|--7-7-7-7-7-7-7-7--|-------------------|--6-6-6-6-6-6-6-6--|
|-------------------|-------------------|-------------------|-------------------|


|-------------------|-------------------|-------------------|-------------------|
|--5-5-5-5-5-5-5-5--|-------------------|-------------------|-------------------|
|-------------------|--7-7-7-7-7-7-7-7--|--6-6-6-6-6-6-6-6--|--6-6-6-6-6-6-6-6--|
|-------------------|-------------------|-------------------|-------------------|


|-------------------|-------------------|-------------------|--------------------|
|--5-5-5-5-5-5-5-5--|-------------------|--5-5-5-5-5-5-5-5--|--------------------|
|-------------------|--7-7-7-7-7-7-7-7--|-------------------|--6-6-6-6-6-6-6-----|
|-------------------|-------------------|-------------------|----------------6\--|


[Outro]

|-------------------|-------------------|-------------------|-------------------|
|-------------------|-------------------|--1-1-1-1-1-1-1-1--|--1-1-1-1-1-1-1-1--|
|-------------------|-------------------|-------------------|-------------------|
|--4-4-4-4-4-4-4-4--|--1-1-1-1-1-1-1-1--|-------------------|-------------------|


|-------------------|-------------------|-------------------|-------------------|-----|
|-------------------|-------------------|-------------------|-------------------|-----|
|-------------------|-------------------|-------------------|--6-6-6-6-6-6-6-6--|-----|
|--4-4-4-4-4-4-4-4--|--1-1-1-1-1-1-1-1--|--4-4-4-4-4-4-4-4--|-------------------|--4--|



************************

| / : slide up
| \ : slide down
| r : rest

************************

in regular sequence!

Suggest correction
Give kudos to tab author, rate the tab!
1 2 3 4 5
comments
print report bad tab
guest
You may want to rate the tab now too:
select rating
Wanna post a correction for this tab? Suggest correction