Oops, an error
Loading. Please wait.

Ærie Descends Tab

28 views 3 this week
no commentswrite comment
1 2 3 4 5
3 more votes to show rating
add to favorites
launch autoscroll
font size
0
reset
how to read this tab
guitar tuner
Autoscroll
slow
fast
+/-
esc
set tempo
stop
Help us to improve Ultimate-Guitar.com Take our survey!
×
Author
Difficulty
Tuning
intermediate
D# G# C# F# A# D#
Artist: Thorns
Title: Ærie Descends
Album: Trøndertun/Nordic Metal - A Tribute To Euronymous
Transcribed by: Urano
Ver. 3.00 (29/08/2016)
E-mail: cerebrenitza@hotmail.com

Tuning: Half Down


   Part_A [128 bpm]
D#|------------------||#
A#|------------------||#
F#|o----------------o||#
C#|o----------------o||#
G#|------------------||#
D#|------------------||#
  |   1     2        |  
  |                  |  
D#|------------------||#
A#|------------------||#
F#|o----------------o||#
C#|o----------------o||#
G#|------------------||#
D#|---1b--r(1)-------||#
      1     2           


   Part_B1 [128 bpm]
D#|---------------------|--------------------|--------------------|--------------------|
A#|---------------------|--------------------|--------------------|--------------------|
F#|o----------9---------|-10-----------------|--9------10---------|----------9---------|
C#|o----------9---------|-10-----------------|--9------10---------|----------9---------|
G#|----------10---------|-11-----------------|-10------11---------|---------10---------|
D#|---0-----------------|----------0---------|--------------------|--0-----------------|
  |   1   2   3   4        1   2   3   4        1   2   3   4        1   2   3   4     |
  |                                                                                    |
D#|---------------------|--------------------|--------------------|--------------------|
A#|---------------------|--------------------|--------------------|--------------------|
F#|o--------------------|--------------------|--------------------|----------9---------|
C#|o--------------------|--------------------|--------------------|----------9---------|
G#|---------------------|--------------------|--------------------|---------10---------|
D#|---0-----------------|-(0)------0---------|-(0)----------------|--0-----------------|
      1   2   3   4        1   2   3   4        1   2   3   4        1   2   3   4      


D#|--------------------|---------------------||#
A#|--------------------|---------------------||#
F#|-10-----------------|--9--13--12---------o||#
C#|-10-----------------|--9--13--12---------o||#
G#|-11-----------------|-10--14--13----------||#
D#|----------0---------|---------------------||#
  |  1   2   3   4        1   2   3   4      |  
  |                                          |  
D#|--------------------|---------------------||#
A#|--------------------|---------------------||#
F#|-10-----------------|--9--13--12---------o||#
C#|-10-----------------|--9--13--12---------o||#
G#|-11-----------------|-10--14--13----------||#
D#|----------0---------|---------------------||#
   1   2   3   4        1   2   3   4         


   Part_B2 [128 bpm]
D#|---------------------|--------------------|--------------------|--------------------|
A#|---------------------|--------------------|--------------------|--------------------|
F#|o----------9---------|-10-----------------|--9------10---------|----------9---------|
C#|o----------9---------|-10-----------------|--9------10---------|----------9---------|
G#|----------10---------|-11-----------------|-10------11---------|---------10---------|
D#|---0-----------------|----------0---------|--------------------|--0-----------------|
  |   1   2   3   4        1   2   3   4        1   2   3   4        1   2   3   4     |
  |                                                                                    |
D#|---------------------|--------------------|--------------------|--------------------|
A#|---------------------|--------------------|--------------------|--------------------|
F#|o----------9---------|-10-----------------|--9------10---------|----------9---------|
C#|o----------9---------|-10-----------------|--9------10---------|----------9---------|
G#|----------10---------|-11-----------------|-10------11---------|---------10---------|
D#|---0-----------------|----------0---------|--------------------|--0-----------------|
      1   2   3   4        1   2   3   4        1   2   3   4        1   2   3   4      


D#|--------------------|---------------------||#
A#|--------------------|---------------------||#
F#|-10-----------------|--9--13--12---------o||#
C#|-10-----------------|--9--13--12---------o||#
G#|-11-----------------|-10--14--13----------||#
D#|----------0---------|---------------------||#
  |  1   2   3   4        1   2   3   4      |  
  |                                          |  
D#|--------------------|---------------------||#
A#|--------------------|---------------------||#
F#|-10-----------------|--9--13--12---------o||#
C#|-10-----------------|--9--13--12---------o||#
G#|-11-----------------|-10--14--13----------||#
D#|----------0---------|---------------------||#
   1   2   3   4        1   2   3   4         


Part_A [128 bpm]


Part_B2 [128 bpm]






   Part_B3 [128 bpm]
D#|---------------------|--------------------|--------------------|--------------------|
A#|---------------------|--------------------|--------------------|--------------------|
F#|o----------9---------|-10-----------------|--9------10---------|----------9---------|
C#|o----------9---------|-10-----------------|--9------10---------|----------9---------|
G#|----------10---------|-11-----------------|-10------11---------|---------10---------|
D#|---0-----------------|----------0---------|--------------------|--0-----------------|
  |   1   2   3   4        1   2   3   4        1   2   3   4        1   2   3   4     |
  |                                                                                    |
D#|---------------------|--------------------|--------------------|--------------------|
A#|---------------------|--------------------|--------------------|--------------------|
F#|o----------9---------|-10-----------------|--9------10---------|----------9---------|
C#|o----------9---------|-10-----------------|--9------10---------|----------9---------|
G#|----------10---------|-11-----------------|-10------11---------|---------10---------|
D#|---0-----------------|----------0---------|--------------------|--0-----------------|
      1   2   3   4        1   2   3   4        1   2   3   4        1   2   3   4      


D#|---------------------||#
A#|---------------------||#
F#|-10-----------------o||#
C#|-10-----------------o||#
G#|-11------------------||#
D#|----------0----------||#
  |  1   2   3   4      |  
  |                     |  
D#|---------------------||#
A#|---------------------||#
F#|-10-----------------o||#
C#|-10-----------------o||#
G#|-11------------------||#
D#|----------0----------||#
   1   2   3   4         


   Part_C [134 bpm]
D#|---------------------|--------------------|--------------------|--------------------|
A#|---------------------|--------------------|--------------------|--------------------|
F#|o--9--13--12---------|(12)----------------|--9--13--12---------|(12)----------------|
C#|o--9--13--12---------|(12)----------------|--9--13--12---------|(12)----------------|
G#|--10--14--13---------|(13)----------------|-10--14--13---------|(13)----------------|
D#|---------------------|--------------------|--------------------|--------------------|
  |   1   2   3   4        1   2   3   4        1   2   3   4        1   2   3   4     |
  |                                                                                    |
D#|---------------------|--------------------|--------------------|--------------------|
A#|---------------------|--------------------|--------------------|--------------------|
F#|o--9--13--12---------|(12)----------------|--9--13--12---------|(12)----------------|
C#|o--9--13--12---------|(12)----------------|--9--13--12---------|(12)----------------|
G#|--10--14--13---------|(13)----------------|-10--14--13---------|(13)----------------|
D#|---------------------|--------------------|--------------------|--------------------|
      1   2   3   4        1   2   3   4        1   2   3   4        1   2   3   4      

D#|--------------------|--------------------|--------------------|--------------------|
A#|--------------------|--------------------|--------------------|--------------------|
F#|--9--13--12---------|(12)----------------|--9--12--11---------|(11)-----10---------|
C#|--9--13--12---------|(12)----------------|--9--12--11---------|(11)-----10---------|
G#|-10--14--13---------|(13)----------------|-10--13--12---------|(12)-----11---------|
D#|--------------------|--------------------|--------------------|--------------------|
  |  1   2   3   4        1   2   3   4        1   2   3   4        1   2   3   4     |
  |                                                                                   |
D#|--------------------|--------------------|--------------------|--------------------|
A#|--------------------|--------------------|--------------------|--------------------|
F#|--9--13--12---------|(12)----------------|--9--12--11---------|(11)-----10---------|
C#|--9--13--12---------|(12)----------------|--9--12--11---------|(11)-----10---------|
G#|-10--14--13---------|(13)----------------|-10--13--12---------|(12)-----11---------|
D#|--------------------|--------------------|--------------------|--------------------|
   1   2   3   4        1   2   3   4        1   2   3   4        1   2   3   4      


D#|---------------------||#
A#|---------------------||#
F#|(10)----------------o||#
C#|(10)----------------o||#
G#|(11)-----------------||#
D#|---------------------||#
  |  1       2          |  
  |                     |  
D#|---------------------||#
A#|---------------------||#
F#|(10)----------------o||#
C#|(10)----------------o||#
G#|(11)-----------------||#
D#|---------------------||#
   1       2             


   Part_D1 [128 bpm] Repeat it 2 times.
D#|---------------------|--------------------|--------------------|--------------------|
A#|---------------------|--------------------|--------------------|--------------------|
F#|o---9---------10-----|(10)------9---------|-(9)--8-------------|--9-----------5-----|
C#|o---9---------10-----|(10)------9---------|-(9)--8-------------|--9-----------5-----|
G#|---10---------11-----|(11)-----10---------|(10)--9-------------|-10-----------6-----|
D#|---------------------|--------------------|--------------------|--------------------|
  |   1   2   3   4        1   2   3   4        1   2   3   4        1   2   3   4     |
  |                                                                                    |
D#|---------------------|--------------------|--------------------|--------------------|
A#|---------------------|--------------------|--------------------|--------------------|
F#|o---9---------10-----|(10)------9---------|-(9)--8-------------|--9-----------5-----|
C#|o---9---------10-----|(10)------9---------|-(9)--8-------------|--9-----------5-----|
G#|---10---------11-----|(11)-----10---------|(10)--9-------------|-10-----------6-----|
D#|---------------------|--------------------|--------------------|--------------------|
      1   2   3   4        1   2   3   4        1   2   3   4        1   2   3   4      


D#|--------------------|---------------------||#
A#|--------------------|---------------------||#
F#|-(5)------4---------|-(4)--8-------------o||#
C#|-(5)------4---------|-(4)--8-------------o||#
G#|-(6)------5---------|-(5)--9--------------||#
D#|--------------------|---------------------||#
  |  1   2   3   4        1   2   3   4      |  
  |                                          |  
D#|--------------------|---------------------||#
A#|--------------------|---------------------||#
F#|-(5)------4---------|-(4)--8-------------o||#
C#|-(5)------4---------|-(4)--8-------------o||#
G#|-(6)------5---------|-(5)--9--------------||#
D#|--------------------|---------------------||#
   1   2   3   4        1   2   3   4         






   Part_D2 [134 bpm] Repeat it 2 times.
D#|---------------------|--------------------|--------------------|--------------------|
A#|---------------------|--------------------|--------------------|--------------------|
F#|o---9---------10-----|(10)------9---------|------8-------------|--9-----------5-----|
C#|o---9---------10-----|(10)------9---------|------8-------------|--9-----------5-----|
G#|---10------...11-----|(11)--...10---------|--...-9-------...---|-10-------...-6-----|
D#|-----------000-------|------000-----------|--000---------000---|----------000-------|
  |   1   2   3   4        1   2   3   4        1   2   3   4        1   2   3   4     |
  |                                                                                    |
D#|---------------------|--------------------|--------------------|--------------------|
A#|---------------------|--------------------|--------------------|--------------------|
F#|o---9---------10-----|(10)------9---------|-(9)--8-------------|--9-----------5-----|
C#|o---9---------10-----|(10)------9---------|-(9)--8-------------|--9-----------5-----|
G#|---10---------11-----|(11)-----10---------|(10)--9-------------|-10-----------6-----|
D#|---------------------|--------------------|--------------------|--------------------|
      1   2   3   4        1   2   3   4        1   2   3   4        1   2   3   4      


D#|--------------------|---------------------||#
A#|--------------------|---------------------||#
F#|-(5)------4---------|------8-------------o||#
C#|-(5)------4---------|------8-------------o||#
G#|-(6)--...-5---------|--...-9-------...----||#
D#|------000-----------|--000---------000----||#
  |  1   2   3   4        1   2   3   4      |  
  |                                          |  
D#|--------------------|---------------------||#
A#|--------------------|---------------------||#
F#|-(5)------4---------|-(4)--8-------------o||#
C#|-(5)------4---------|-(4)--8-------------o||#
G#|-(6)------5---------|-(5)--9--------------||#
D#|--------------------|---------------------||#
   1   2   3   4        1   2   3   4         


   Part_E1 [134 bpm]
D#|---------------------|------7~--6~--------|--------------------|--------------------|
A#|---------------------|--8~----------7~----|--------------------|--------------------|
F#|o--------------9~----|--------------------|--8~----------------|--------------9~----|
C#|o----------9~--------|--------------------|------8~------------|----------9~--------|
G#|-------7~------------|--------------------|--------------6~----|------7~------------|
D#|---0~----------------|--------------------|--------------------|--0~----------------|
  |   1   2   3   4        1   2   3   4        1   2   3   4        1   2   3   4     |
  |                                                                                    |
D#|---------------------|--------------------|--------------------|--------------------|
A#|---------------------|--------------------|--------------------|--------------------|
F#|o--------------------|--------------------|--------------------|--------------------|
C#|o--------------------|--------------------|--------------------|--------------------|
G#|---------------------|--------------------|--------------------|--------------------|
D#|---------------------|--------------------|--------------------|--------------------|
      1   2   3   4        1   2   3   4        1   2   3   4        1   2   3   4      


D#|------7~--6~--------|--------------------|--------------------|------3~--2~--------|
A#|--8~----------7~----|--------------------|--------------------|--4~----------3~----|
F#|--------------------|--8~----------------|--------------5~----|--------------------|
C#|--------------------|------8~------------|----------5~--------|--------------------|
G#|--------------------|--------------6~----|------3~------------|--------------------|
D#|--------------------|--------------------|--3~----------------|--------------------|
  |  1   2   3   4        1   2   3   4        1   2   3   4        1   2   3   4     |
  |                                                                                   |
D#|--------------------|--------------------|--------------------|--------------------|
A#|--------------------|--------------------|--------------------|--------------------|
F#|--------------------|--------------------|--------------------|--------------------|
C#|--------------------|--------------------|--------------------|--------------------|
G#|--------------------|--------------------|--------------------|--------------------|
D#|--------------------|--------------------|--------------------|--------------------|
   1   2   3   4        1   2   3   4        1   2   3   4        1   2   3   4      


D#|--------------------|--------------------|------3~--2~--------|---------------------||#
A#|--------------------|--------------------|--4~----------3~----|---------------------||#
F#|--4~----------------|--------------5~----|--------------------|--4~----------------o||#
C#|------4~------------|----------5~--------|--------------------|------4~------------o||#
G#|--------------2~----|------3~------------|--------------------|--------------2~-----||#
D#|--------------------|--3~----------------|--------------------|---------------------||#
  |  1   2   3   4        1   2   3   4        1   2   3   4        1   2   3   4      |  
  |                                                                                    |  
D#|--------------------|--------------------|--------------------|---------------------||#
A#|--------------------|--------------------|--------------------|---------------------||#
F#|--------------------|--------------------|--------------------|--------------------o||#
C#|--------------------|--------------------|--------------------|--------------------o||#
G#|--------------------|--------------------|--------------------|---------------------||#
D#|--------------------|--------------------|--------------------|---------------------||#
   1   2   3   4        1   2   3   4        1   2   3   4        1   2   3   4         


Part_D2 [134 bpm] Repeat it 2 times.


   Part_E2 [134 bpm]
D#|---------------------|------7~--6~--------|--------------------|--------------------|
A#|---------------------|--8~----------7~----|--------------------|--------------------|
F#|o--------------9~----|--------------------|--8~----------------|--------------9~----|
C#|o----------9~--------|--------------------|------8~------------|----------9~--------|
G#|-------7~------------|--------------------|--------------6~----|------7~------------|
D#|---0~----------------|--------------------|--------------------|--0~----------------|
  |   1   2   3   4        1   2   3   4        1   2   3   4        1   2   3   4     |
  |                                                                                    |
D#|---------------------|--------------------|--------------------|--------------------|
A#|---------------------|--------------------|--------------------|--------------------|
F#|o--------------------|--------------------|--------------------|--------------------|
C#|o--------------------|--------------------|--------------------|--------------------|
G#|---------------------|--------------------|--------------------|--------------------|
D#|---------------------|--------------------|--------------------|--------------------|
      1   2   3   4        1   2   3   4        1   2   3   4        1   2   3   4      


D#|------7~--6~--------|--------------------|--------------------|------3~--2~--------|
A#|--8~----------7~----|--------------------|--------------------|--4~----------3~----|
F#|--------------------|--8~----------------|--------------5~----|--------------------|
C#|--------------------|------8~------------|----------5~--------|--------------------|
G#|--------------------|--------------6~----|------3~------------|--------------------|
D#|--------------------|--------------------|--3~----------------|--------------------|
  |  1   2   3   4        1   2   3   4        1   2   3   4        1   2   3   4     |
  |                                                                                   |
D#|--------------------|--------------------|--------------------|--------------------|
A#|--------------------|--------------------|--------------------|--------------------|
F#|--------------------|--------------------|--------------------|--------------------|
C#|--------------------|--------------------|--------------------|--------------------|
G#|--------------------|--------------------|--------------------|--------------------|
D#|--------------------|--------------------|--------------------|--------------------|
   1   2   3   4        1   2   3   4        1   2   3   4        1   2   3   4      


D#|--------------------|--------------------|------3~------------|-------------||#
A#|--------------------|--------------------|--4~------3-#-------|--2-#---7----||#
F#|--4~----------------|--------------5~----|----------4-#-------|--3-#---8---o||#
C#|------4~------------|----------5~--------|----------4-#-------|--3-#---8---o||#
G#|--------------2~----|------3~------------|--------------------|-------------||#
D#|--------------------|--3~----------------|--------------------|-------------||#
  |  1   2   3   4        1   2   3   4        1   2   3   4        1   2      |  
  |                                                                            |  
D#|--------------------|--------------------|--------------------|-------------||#
A#|--------------------|--------------------|----------3-#-------|--2-#---7----||#
F#|--------------------|--------------------|----------4-#-------|--3-#---8---o||#
C#|--------------------|--------------------|----------4-#-------|--3-#---8---o||#
G#|--------------------|--------------------|--------------------|-------------||#
D#|--------------------|--------------------|--------------------|-------------||#
   1   2   3   4        1   2   3   4        1   2   3   4        1   2         


   Part_F [148 bpm]
D#|---------------------|-------------||#
A#|---6-------6---5-----|--5---5------||#
F#|o--7-------7---6-----|--6---6-----o||#
C#|o--7-------7---6-----|--6---6-----o||#
G#|---------------------|-------------||#
D#|---------------------|-------------||#
  |   1   2   3   4        1   2      |  
  |                                   |  
D#|---------------------|-------------||#
A#|---6-------6---5-----|--5---5------||#
F#|o--7-------7---6-----|--6---6-----o||#
C#|o--7-------7---6-----|--6---6-----o||#
G#|---------------------|-------------||#
D#|---------------------|-------------||#
      1   2   3   4        1   2         


   Part_G1 [134 bpm] Repeat it 3 times.
D#|---3-----------------|-(3)----------------|--0-----------------|-(0)-----------------||#
A#|---4-----------------|-(4)----------------|--0-----------------|-(0)-----------------||#
F#|o--5-----------------|-(5)----------------|--0-----------------|-(0)----------------o||#
C#|o--5-----------------|-(5)----------------|--2-----------------|-(2)----------------o||#
G#|---^-----------------|--------------------|--^-----------------|---------------------||#
D#|---------------------|--------------------|--------------------|---------------------||#
  |   1   2   3   4        1   2   3   4        1   2   3   4        1   2   3   4      |  
  |                                                                                     |  
D#|---3-----------------|-(3)----------------|--0-----------------|-(0)-----------------||#
A#|---4-----------------|-(4)----------------|--0-----------------|-(0)-----------------||#
F#|o--5-----------------|-(5)----------------|--0-----------------|-(0)----------------o||#
C#|o--5-----------------|-(5)----------------|--2-----------------|-(2)----------------o||#
G#|---^-----------------|--------------------|--^-----------------|---------------------||#
D#|---------------------|--------------------|--------------------|---------------------||#
      1   2   3   4        1   2   3   4        1   2   3   4        1   2   3   4         



   Part_G2 [134 bpm]
D#|---3-----------------|-(3)------3/----(7)-|--7-----------------|--6------------------||#
A#|---4-----------------|-(4)------4/----(8)-|--8-----------------|--7------------------||#
F#|o--5-----------------|-(5)------5/----(9)-|--9-----------------|--8-----------------o||#
C#|o--5-----------------|-(5)------5/----(9)-|--9-----------------|--8-----------------o||#
G#|---^-----------------|----------^---------|--^-----------------|--^------------------||#
D#|---------------------|--------------------|--------------------|---------------------||#
  |   1   2   3   4        1   2   3   4        1   2   3   4        1   2   3   4      |  
  |                                                                                     |  
D#|---3-----------------|-(3)------3/----(7)-|--7-----------------|--6------------------||#
A#|---4-----------------|-(4)------4/----(8)-|--8-----------------|--7------------------||#
F#|o--5-----------------|-(5)------5/----(9)-|--9-----------------|--8-----------------o||#
C#|o--5-----------------|-(5)------5/----(9)-|--9-----------------|--8-----------------o||#
G#|---^-----------------|----------^---------|--^-----------------|--^------------------||#
D#|---------------------|--------------------|--------------------|---------------------||#
      1   2   3   4        1   2   3   4        1   2   3   4        1   2   3   4         



   Part_H [156 bpm] Repeat it 2 times.
D#|---7-----------4-----|-(4)----------------|--------------------|---------------------||#
A#|---8-----------4-----|-(4)----------------|--------------------|---------------------||#
F#|o--9-----------4-----|-(4)----------------|------------------o--/-------------------o||#
C#|o--9-----------6-----|-(6)----------------|-------------------/--o------------------o||#
G#|---^-----------^-----|--------------------|--------------------|---------------------||#
D#|-------0-000-00------|--------------------|--------------------|---------------------||#
  |   1   2   3   4        1   2   3   4        1   2   3   4        1   2   3   4      |  
  |                                                                                     |  
D#|---7---#-------4-----|-(4)----------------|--------------------|---------------------||#
A#|---8---#-------4-----|-(4)----------------|--------------------|---------------------||#
F#|o--9---#-------4-----|-(4)----------------|------------------o--/-------------------o||#
C#|o--9---#-------6-----|-(6)----------------|-------------------/--o------------------o||#
G#|---^-----------^-----|--------------------|--------------------|---------------------||#
D#|---------------------|--------------------|--------------------|---------------------||#
      1   2   3   4        1   2   3   4        1   2   3   4        1   2   3   4         


   Part_I1 [168 bpm]
D#|---------------------|--------------------|--------------------|--------------------|
A#|---------------------|--------------------|--------------------|--------------------|
F#|o--------------------|--------------------|--------------------|--------------------|
C#|o--------------...---|------...-----...---|--------------...---|------...-----...---|
G#|---...-...-...-666---|--...-777-...-666---|--...-...-...-666---|--...-777-...-666---|
D#|---444-777-444-------|--444-----444-------|--444-777-444-------|--444-----444-------|
  |   1   2   3   4        1   2   3   4        1   2   3   4        1   2   3   4     |
  |                                                                                    |
D#|---------------------|--------------------|--------------------|--------------------|
A#|---------------------|--------------------|--------------------|--------------------|
F#|o--------------------|--------------------|--------------------|--------------------|
C#|o--------------------|--------------------|--------------------|--------------------|
G#|---------------------|--------------------|--------------------|--------------------|
D#|---------------------|--------------------|--------------------|--------------------|
      1   2   3   4        1   2   3   4        1   2   3   4        1   2   3   4      


D#|--------------------|--------------------|--------------------|--0------------------||#
A#|--------------------|--------------------|--------------------|--0------------------||#
F#|--------------------|--------------------|--------------------|--0-----------------o||#
C#|--------------...---|------...-----...---|--------------------|--2-----------------o||#
G#|--...-...-...-666---|--...-777-...-666---|--...-...-...-..----|--^------------------||#
D#|--444-777-444-------|--444-----444-------|--000-000-000-00----|---------------------||#
  |  1   2   3   4        1   2   3   4        1   2   3   4        1   2   3   4      |  
  |                                                                                    |  
D#|--------------------|--------------------|--------------------|--0------------------||#
A#|--------------------|--------------------|--------------------|--0------------------||#
F#|--------------------|--------------------|--^-----------------|--0-----------------o||#
C#|--------------------|--------------------|--2-----------------|--2-----------------o||#
G#|--------------------|--------------------|--2-----------------|--^------------------||#
D#|--------------------|--------------------|--0-----------------|---------------------||#
   1   2   3   4        1   2   3   4        1   2   3   4        1   2   3   4         


   Part_I2 [168 bpm]
D#|---------------------|--------------------|--------------------|--------------------|
A#|---------------------|--------------------|--------------------|--------------------|
F#|o--------------------|--------------------|--------------------|--------------------|
C#|o--------------...---|------...-----...---|--------------...---|------...-----...---|
G#|---...-...-...-666---|--...-777-...-666---|--...-...-...-666---|--...-777-...-666---|
D#|---444-777-444-------|--444-----444-------|--444-777-444-------|--444-----444-------|
  |   1   2   3   4        1   2   3   4        1   2   3   4        1   2   3   4     |
  |                                                                                    |
D#|---------------------|--------------------|--------------------|--------------------|
A#|---------------------|--------------------|--------------------|--------------------|
F#|o--------------------|--------------------|--------------------|--------------------|
C#|o--------------------|--------------------|--------------------|--------------------|
G#|---------------------|--------------------|--------------------|--------------------|
D#|---------------------|--------------------|--------------------|--------------------|
      1   2   3   4        1   2   3   4        1   2   3   4        1   2   3   4      


D#|--------------------|--------------------|--------------------|---------------------||#
A#|--5-----------------|-(5)----------------|--------------------|---------------------||#
F#|--5-----------------|-(5)----------------|--6-#---------------|--------------------o||#
C#|--7-----------------|-(7)----------------|--7-#---------------|--------------------o||#
G#|--7-----------------|-(7)----------------|--9-#---------------|---------------------||#
D#|--^-----------------|--------------------|--^-----------------|---------------------||#
  |  1   2   3   4        1   2   3   4        1   2   3   4        1   2   3   4      |  
  |                                                                                    |  
D#|--------------------|--------------------|--------------------|---------------------||#
A#|--5-----------------|-(5)----------------|--------------------|---------------------||#
F#|--5-----------------|-(5)----------------|--6-#---------------|--------------------o||#
C#|--7-----------------|-(7)----------------|--7-#---------------|--------------------o||#
G#|--7-----------------|-(7)----------------|--9-#---------------|---------------------||#
D#|--^-----------------|--------------------|--^-----------------|---------------------||#
   1   2   3   4        1   2   3   4        1   2   3   4        1   2   3   4         


   Part_J [148 bpm]
D#|---------------------|--------------------|--------------------|---------------------||#
A#|---------------------|--------------------|--------------------|---------------------||#
F#|o--^-----------------|--------------------|--------------------|--------------------o||#
C#|o--3-----------------|-(3)----------------|-(3)----------------|-(3)----------------o||#
G#|---3-----------------|-(3)----------------|-(3)----------------|-(3)-----------------||#
D#|---1-----------------|-(1)----------------|-(1)----------------|-(1)-----------------||#
  |   1   2   3   4        1   2   3   4        1   2   3   4        1   2   3   4      |  
  |                                                                                     |  
D#|---------------------|--------------------|--------------------|---------------------||#
A#|---1-----------------|--1-----------------|-(1)----------------|-(1)-----------------||#
F#|o--1-----------------|-(1)----------------|-(1)----------------|-(1)----------------o||#
C#|o--3-----------------|-(3)----------------|-(3)----------------|-(3)----------------o||#
G#|---3-----------------|-(3)----------------|-(3)----------------|-(3)-----------------||#
D#|---^-----------------|--------------------|--------------------|---------------------||#
      1   2   3   4        1   2   3   4        1   2   3   4        1   2   3   4         


Part_D2 [134 bpm] Repeat it 2 times.


   Part_E3 [134 bpm]
D#|---------------------|------9~--8~--------|--------------------|--------------------|
A#|---------------------|-10~----------9~----|--------------------|--------------------|
F#|o-------------11~----|--------------------|-10~----------------|-------------11~----|
C#|o---------11~--------|--------------------|-----10~------------|---------11~--------|
G#|-------9~------------|--------------------|--------------8~----|------9~------------|
D#|---9~----------------|--------------------|--------------------|--9~----------------|
  |   1   2   3   4        1   2   3   4        1   2   3   4        1   2   3   4     |
  |                                                                                    |
D#|---------------------|--------------------|--------------------|--------------------|
A#|---------------------|--------------------|--------------------|--------------------|
F#|o--------------------|--------------------|--------------------|--------------------|
C#|o--------------------|--------------------|--------------------|--------------------|
G#|---------------------|--------------------|--------------------|--------------------|
D#|---------------------|--------------------|--------------------|--------------------|
      1   2   3   4        1   2   3   4        1   2   3   4        1   2   3   4      


D#|------9~--8~--------|--------------------|--------------------|-----11~-10~--------|
A#|-10~----------9~----|--------------------|--------------------|-12~---------11~----|
F#|--------------------|-10~----------------|-------------13~----|--------------------|
C#|--------------------|-----10~------------|---------13~--------|--------------------|
G#|--------------------|--------------8~----|-----11~------------|--------------------|
D#|--------------------|--------------------|-11~----------------|--------------------|
  |  1   2   3   4        1   2   3   4        1   2   3   4        1   2   3   4     |
  |                                                                                   |
D#|--------------------|--------------------|--------------------|--------------------|
A#|--------------------|--------------------|--------------------|--------------------|
F#|--------------------|--------------------|--------------------|--------------------|
C#|--------------------|--------------------|--------------------|--------------------|
G#|--------------------|--------------------|--------------------|--------------------|
D#|--------------------|--------------------|--------------------|--------------------|
   1   2   3   4        1   2   3   4        1   2   3   4        1   2   3   4      


D#|---------------------||#
A#|---------------------||#
F#|-12~----------------o||#
C#|-----12~------------o||#
G#|-------------10~-----||#
D#|---------------------||#
  |  1   2   3   4      |  
  |                     |  
D#|---------------------||#
A#|---------------------||#
F#|-12~----------------o||#
C#|-----12~------------o||#
G#|-------------10~-----||#
D#|---------------------||#
   1   2   3   4         


   Part_K [158 bpm]
D#|---9-----------------|-(9)----------------|--------------------|--------------------|
A#|--10-----------------|(10)----------------|--------------------|--------------------|
F#|o-11-----------------|(11)----------------|--^-----------------|--------------------|
C#|o-11-----------------|(11)----------------|--4-----------------|-(4)----------------|
G#|---^-----------------|--------------------|--4-----------------|-(4)----------------|
D#|---------------------|--------------------|--2-----------------|-(2)----------------|
  |   1   2   3   4        1   2   3   4        1   2   3   4        1   2   3   4     |
  |                                                                                    |
D#|---9-----------------|-(9)----------------|--------------------|--------------------|
A#|--10-----------------|(10)----------------|--2-----------------|-(2)----------------|
F#|o-11-----------------|(11)----------------|--2-----------------|-(2)----------------|
C#|o-11-----------------|(11)----------------|--4-----------------|-(4)----------------|
G#|---^-----------------|--------------------|--4-----------------|-(4)----------------|
D#|---------------------|--------------------|--^-----------------|--------------------|
      1   2   3   4        1   2   3   4        1   2   3   4        1   2   3   4      


D#|--------------------|---------------------||#
A#|--------------------|---------------------||#
F#|--^-----------------|--^-----------^-----o||#
C#|--4-----------------|--3-----------2-#---o||#
G#|--4-----------------|--3-----------2-#----||#
D#|--2-----------------|--1-----------0-#----||#
  |  1   2   3   4        1   2   3   4      |  
  |                                          |  
D#|--------------------|---------------------||#
A#|--2-----------------|--1------------0-#---||#
F#|--2-----------------|--1------------0-#--o||#
C#|--4-----------------|--3------------2-#--o||#
G#|--4-----------------|--3------------2-#---||#
D#|--^-----------------|--^------------^-----||#
   1   2   3   4        1   2   3   4         


   Part_L [210 bpm] Repeat it 2 times. [Synthesizer] [Fade out at 2nd time]
D#|--12------15\(12)----|---------15\(12)----|--------------------|--------------------|
A#|---------------------|-12-----------------|--------------------|--------------------|
F#|o--------------------|--------------------|------------------o--/-------------------|
C#|o--------------------|--------------------|-------------------/--o------------------|
G#|---------------------|--------------------|--------------------|--------------------|
D#|---------------------|--------------------|--------------------|--------------------|
      1   2   3   4        1   2   3   4        1   2   3   4        1   2   3   4      


D#|-11------14\(11)----|---------14\(11)----|--------------------|---------------------||#
A#|--------------------|-11-----------------|--------------------|---------------------||#
F#|--------------------|--------------------|------------------o--/-------------------o||#
C#|--------------------|--------------------|-------------------/--o------------------o||#
G#|--------------------|--------------------|--------------------|---------------------||#
D#|--------------------|--------------------|--------------------|---------------------||#
   1   2   3   4        1   2   3   4        1   2   3   4        1   2   3   4



************************************

| (n)  Ghost note
| b    Bend
| /    Slide up
| ~    Vibrato
| o    reprise
| r    release   

************************************
Suggest correction
Give kudos to tab author, rate the tab!
1 2 3 4 5
comments
print report bad tab
guest
You may want to rate the tab now too:
select rating
Wanna post a correction for this tab? Suggest correction