Oops, an error
Loading. Please wait.

Agüela Tab

22 views 1 this week
no commentswrite comment
1 2 3 4 5
3 more votes to show rating
add to favorites
launch autoscroll
font size
0
reset
how to read this tab
guitar tuner
Autoscroll
slow
fast
+/-
esc
set tempo
stop
Help us to improve Ultimate-Guitar.com Take our survey!
×
Author
Difficulty
novice
[Verso 1]

La guitarra entra en la parte de "De verdad que eres vago..."

Esto es básicamente todo lo que hace la guitarra en los versos, aparte de los fills que aparecen.

e|---5---x---5---x---5---x---|
B|---5---x---5---x---5---x---|
G|---------------------------|
D|---------------------------|
A|---------------------------|
E|---------------------------|

"Que vaina, que chavienda..."

e|-----------------------|
B|-----------------------|
G|-----------------------|
D|--7L---7/12L---12\-----|
A|--7L---7/12L---12\-----|
E|--5L---5/10L---10\-----|


e|---5---x---5---x---5---x---|
B|---5---x---5---x---5---x---|
G|---------------------------|
D|---------------------------|
A|---------------------------|
E|---------------------------|... hasta el coro

[Coro 1]

"Mi agüela..."

e|------------------------------------------------|----------------------------------|
B|------------------------------------------------|----------------------------------|
G|------------------------------------------------|----------------------7br5--------|
D|---2-2---x---x-x---5--7-7---x--x-x---5---2-2----|-----x---x-x--5--7-7-------7------|
A|---2-2---x---x-x---5--7-7---x--x-x---5---2-2----|-----x---x-x--5--7-7--------------|
E|---0-0---x---x-x---3--5-5---x--x-x---3---0-0----|-----x---x-x--3--5-5--------------|

e|-------------------------------------------------|-----------------------|
B|-------------------------------------------------|-----------------------|
G|-------------------------------------------------|-----------------------|
D|---2-2---x---x-x---5--7-7---x---x-x---5---2-2----|-----x---x-x---5--7-7--|
A|---2-2---x---x-x---5--7-7---x---x-x---5---2-2----|-----x---x-x---5--7-7--|
E|---0-0---x---x-x---3--5-5---x---x-x---3---0-0----|-----x---x-x---3--5-5--|

[Verso 2]

"Pasaron unos días, conocí a su vecina..."

   H.N    H.N    H.N    H.N    H.N    H.N 
e|--------------------------------------------|
B|-----------------------8--------------------|
G|------------------------------7-------------|
D|-----------------7------------------7WB-----|
A|----------7---------------------------------|
E|---5----------------------------------------|


e|---5---x---5---x---5---x---|
B|---5---x---5---x---5---x---|
G|---------------------------|
D|---------------------------|
A|---------------------------|
E|---------------------------|

"Que otro día por la noche yo quera salir..."

e|-------------------------------------|
B|-------------------------------------|
G|-------------------------------------|
D|--7L---7/12L---12\7L---7/12L---12\---|
A|--7L---7/12L---12\7L---7/12L---12\---|
E|--5L---5/10L---10\5L---5/10L---10\---|


e|---5---x---5---x---5---x---|
B|---5---x---5---x---5---x---|
G|---------------------------|
D|---------------------------|
A|---------------------------|
E|---------------------------|... hasta el coro


[Coro 2]

"Mi agüela..."

e|------------------------------------------------|----------------------------------|
B|------------------------------------------------|----------------------------------|
G|------------------------------------------------|----------------------7br5--------|
D|---2-2---x---x-x---5--7-7---x--x-x---5---2-2----|-----x---x-x--5--7-7-------7------|
A|---2-2---x---x-x---5--7-7---x--x-x---5---2-2----|-----x---x-x--5--7-7--------------|
E|---0-0---x---x-x---3--5-5---x--x-x---3---0-0----|-----x---x-x--3--5-5--------------|

e|-------------------------------------------------|-----------------------|
B|-------------------------------------------------|-----------------------|
G|-------------------------------------------------|-----------------------|
D|---2-2---x---x-x---5--7-7---x---x-x---5---2-2----|-----x---x-x---5--7-7--|
A|---2-2---x---x-x---5--7-7---x---x-x---5---2-2----|-----x---x-x---5--7-7--|
E|---0-0---x---x-x---3--5-5---x---x-x---3---0-0----|-----x---x-x---3--5-5--|

[Verso 3]

"Y asimismo un problema que a rato yo tenía..."

e|---------------------------------|------------------------------------------|
B|---------------------------------|------------------------------------------|
G|--------------------------5------|-----------------------7-7-7--5-----------|
D|------------7----------7----7----|------------7--------------------5-6-7----|
A|----------7---7---5L-------------|----------7---7---5L----------------------|
E|-----5---------------------------|-----5------------------------------------|...x2


e|---5---x---5---x---5---x---|
B|---5---x---5---x---5---x---|
G|---------------------------|
D|---------------------------|
A|---------------------------|
E|---------------------------|... hasta el coro

[Coro 3]

"Mi agüela..."

e||------------------------------------------------|----------------------------------|
B||------------------------------------------------|----------------------------------|
G||------------------------------------------------|----------------------7br5--------|
D||---2-2---x---x-x---5--7-7---x--x-x---5---2-2----|-----x---x-x--5--7-7-------7------|
A||---2-2---x---x-x---5--7-7---x--x-x---5---2-2----|-----x---x-x--5--7-7--------------|
E||---0-0---x---x-x---3--5-5---x--x-x---3---0-0----|-----x---x-x--3--5-5--------------|

e|-------------------------------------------------|-----------------------------------||
B|-------------------------------------------------|-----------------------------------||
G|-------------------------------------------------|-----------------------------------||
D|---2-2---x---x-x---5--7-7---x---x-x---5---2-2----|-----x---x-x---5--7-7--x---x-x--5--||
A|---2-2---x---x-x---5--7-7---x---x-x---5---2-2----|-----x---x-x---5--7-7--x---x-x--5--||
E|---0-0---x---x-x---3--5-5---x---x-x---3---0-0----|-----x---x-x---3--5-5--x---x-x--3--||

Se repite y se termina en

e|---------|
B|---------|
G|---------|
D|---2-2---|
A|---2-2---|
E|---0-0---|


************************************

|x    Nota muerta
|/\   Slide
|br   Bend y release 
|L    Se deja sonar
|h    Hammer-on/Pull-off
|WB   Vibrato con Whammy Bar
|H.N  Harmonico natural

************************************
Suggest correction
Give kudos to tab author, rate the tab!
1 2 3 4 5
comments
print report bad tab
guest
You may want to rate the tab now too:
select rating
Wanna post a correction for this tab? Suggest correction