Oops, an error
Loading. Please wait.

外はいい天気だよ 78 Bass Tab

34 views 1 this week
no commentswrite comment
1 2 3 4 5
3 more votes to show rating
add to favorites
launch autoscroll
font size
0
reset
guitar tuner
Autoscroll
slow
fast
+/-
esc
set tempo
stop
Help us to improve Ultimate-Guitar.com Take our survey!
×
Author
Difficulty
novice
Song : https://www.youtube.com/watch?v=EL3p_Bzd6rI


[Intro]

G|--------14----------14-----|--------19----------19--|-----------|-----------|
D|-----14----14----14----14--|-----19----19----19-----|-----------|-----------|
A|--12----------12-----------|--17----------17--------|--19---17--|--17-------|
E|---------------------------|------------------------|-----------|-------15--|


G|----------------|--0-2-4--|
D|----------------|---------|
A|--------r-------|---------|
E|----------------|---------|


G|---------------|----------------|---------------|-----------|
D|---------------|----------------|---------------|-----------|
A|--3---3--------|--5---5----0-2--|--3---3--------|--5---5----|
E|--------5---5--|--------3-------|--------5---5--|--------3--|


[Verse 1]

G|---------------|----------------|---------------|----------------|
D|---------------|----------------|---------------|----------------|
A|--3---3--------|--5---5----0-2--|--3---3--------|--5--5-----5-6--|
E|--------5---5--|--------3-------|--------5---5--|-------3--------|


G|----------------|----------------|--------------------|---------|
D|----------------|----------------|-----------7-5------|---------|
A|--7----7--------|--5---5----5-6--|--7---7--------8-7--|--5------|
E|-----7---5---5--|--------3-------|--------5-----------|------4--|


G|---------------|-----------------|---------------|------------4----|
D|---------------|------3-5-3-2----|---------------|------3-5-4---5--|
A|--3---3--------|--5-----------5--|--3---3--------|--5--------------|
E|--------5---5--|-----------------|--------5---5--|-----------------|


G|-------------9--|--7-----7--|----------|---------|
D|--7-----7-------|-----7-----|----------|---------|
A|-----7-----7----|-----------|--7--7-5--|--5------|
E|----------------|-----------|----------|------3--|


G|----------------|---------|
D|----------------|---------|
A|--------r-------|------3--|
E|----------------|--4-6----|


[Verse 2]

G|---------------|---------------|---------------|----------------|
D|---------------|---------------|---------------|----------------|
A|--4---4--------|--6---6--------|--4---4--------|--6--6-----6-7--|
E|--------6---6--|--------4---4--|--------6---6--|-------4--------|


G|---------------|----------------|---------------|----------|
D|---------------|----------------|---------------|----------|
A|--8---8--------|--6---6----6-7--|--8---8--------|--6--6----|
E|--------6---6--|--------4-------|--------6---6--|-------5--|


G|---------------|---------------|---------------|----------------|
D|---------------|---------------|---------------|----------------|
A|--4---4--------|--6---6--------|--4---4--------|--6---6------3--|
E|--------6---6--|--------4---4--|--------6---6--|--------4--4----|


G|---------------|----------------|---------------|----------------|
D|---------------|----------------|---------------|----------------|
A|--4---4--------|--6---6------3--|--4---4--------|--6---6------3--|
E|--------6---6--|--------4--4----|--------6---6--|--------4--4----|


[Outro] (repeat until the end)

G|---------------|----------------|---------------|----------------|
D|---------------|----------------|---------------|----------------|
A|--4---4--------|--6---6------3--|--4---4--------|--6---6------3--|
E|--------6---6--|--------4--4----|--------6---6--|--------4--4----|



************************

| r : rest

************************

in regular sequence!
Suggest correction
Give kudos to tab author, rate the tab!
1 2 3 4 5
comments
print report bad tab
guest
You may want to rate the tab now too:
select rating
Wanna post a correction for this tab? Suggest correction