Oops, an error
Loading. Please wait.

Uzun Ince Bir Yoldayim Tab

352 views 15 this week
no commentswrite comment
1 2 3 4 5
1 last vote to show rating
add to favorites
launch autoscroll
font size
0
reset
how to read this tab
guitar tuner
Autoscroll
slow
fast
+/-
esc
set tempo
stop
Author
Difficulty
novice
About this tab version
Didnt find this version of the song really anywhere else that is pretty easy. Was this info helpful? Yes No
[Solo]

e|---------------------------------------------------------------------------|
B|---------------------------------------------------------------------------|
G|---------------------------------------------------------------------------|
D|------0-0----------------------2-0-2-----0---------------------------------|
A|----3------3-2-0-3-2-0-0-0------------3-----3-2-0-3-2-0-0-0----------------|
E|---------------------------------------------------------------------------|

e|---------------------------------------------------------------------------|
B|---------------------------------------------------------------------------|
G|---------------------------------------------------------------------------|
D|------0-0----------------------2-0-2-----0---------------------------------|
A|----3------3-2-0-3-2-0-0-0------------3-----3-2-0-3-2-0-0-0----------------|
E|---------------------------------------------------------------------------|

e|---------------------------------------------------------------------------|
B|---0-1-1-1---1-0---1-0--------------1--------------------------------------|
G|-----------------2--------------------2-0-2-2---2-0-0------2-0-------------|
D|-------------------------------------------------------3-------------------|
A|---------------------------------------------------------------------------|
E|---------------------------------------------------------------------------|

e|---------------------------------------------------------------------------|
B|---------------------------------------------------------------------------|
G|-----0---------0-----------------------------------------------------------|
D|--------3-2-0----2-3------3-2-2-0-3-2-----------2-0-0-----2-0----0---------|
A|---------------------------------------3---------------3-------------------|
E|---------------------------------------------------------------------------|


e|---------------------------------------------------------------------------|
B|---0-1-1-1---1-0---1-0--------------1--------------------------------------|
G|-----------------2--------------------2-0-2-2---2-0-0------2-0-------------|
D|-------------------------------------------------------3-------------------|
A|---------------------------------------------------------------------------|
E|---------------------------------------------------------------------------|

e|---------------------------------------------------------------------------|
B|---------------------------------------------------------------------------|
G|-----0---------0-----------------------------------------------------------|
D|--------3-2-0----2-3------3-2-2-0-3-2-----------2-0-0-----2-0----0---------|
A|---------------------------------------3---------------3-------------------|
E|---------------------------------------------------------------------------|


************************************

| h   Hammer-on
| p   Pull-off

************************************
Suggest correction
Give kudos to tab author, rate the tab!
1 2 3 4 5
comments
print report bad tab
guest
You may want to rate the tab now too:
select rating
Wanna post a correction for this tab? Suggest correction