Oops, an error
Loading. Please wait.

恋するふたり Bass Tab

22 views 1 this week
no commentswrite comment
1 2 3 4 5
3 more votes to show rating
add to favorites
launch autoscroll
font size
0
reset
guitar tuner
Autoscroll
slow
fast
+/-
esc
set tempo
stop
Help us to improve Ultimate-Guitar.com Take our survey!
×
Author
Difficulty
novice
Song : https://www.youtube.com/watch?v=mmt2y7TThHg


[Intro]

G|---------|------------------|-------------|--------------|
D|---------|------------------|-------------|-----------4--|
A|---------|----4-6---6----6--|--4---4------|---------4----|
E|--7---7--|--7----------6----|----------4--|--2---2-------|


G|---------|------------------|------6----------|---------------------|
D|---------|------------------|---------6--5-4--|--4------------------|
A|---------|----4-6---6----6--|--4--------------|------4-----------1--|
E|--7---7--|--7----------6----|-----------------|---------2---2--4----|


[Verse]

G|---------|-----------------|---------|------------------|
D|---------|-----------------|---------|------------------|
A|---------|----4-6---6---6--|---------|----4-6---6----6--|
E|--7---7--|--7--------------|--4---4--|--7----------6----|


G|--------------|----------------|--------------|--------------|
D|------6-4-----|----------------|--------------|-----------4--|
A|--4--------4--|--2---x----x-6--|--4---4-4-----|---------4----|
E|--------------|--------4-------|-----------4--|--2---2-------|


G|---------|------------------|------------------|----------|
D|---------|------------------|------------------|----------|
A|---------|----4-6---6----6--|-------------4-6--|--6----6--|
E|--7---7--|--7----------6----|--4---4--4-7------|-----6----|


G|--------------|----------------|-----------------|----------------|
D|------6-4-----|----------------|-----------------|---------4-1----|
A|--4--------4--|--2---x----x-6--|--4--------------|--2---2------2--|
E|--------------|--------4-------|------4-x-2-2-2--|----------------|


G|----------------|----------------|------------------|----------|
D|--2---2--2-2-2--|--3---3--3-3-3--|------------------|-------6--|
A|----------------|----------------|--2---2--2--------|-----6----|
E|----------------|----------------|-----------2-3-4--|--4-------|


G|---------------|-------------|--------------|--------------|
D|------6--------|-------------|-----------6--|--4---4----4--|
A|--4-------4----|--4----------|--4---4-4-----|---------4----|
E|------------4--|------4---4--|--------------|--------------|


G|---------|------------------|-----------------|----------|
D|---------|------------------|-----------------|----------|
A|---------|----4-6---6----6--|------------4-6--|--6----6--|
E|--7---7--|--7----------6----|--4---4---7------|-----6----|


G|--------------|----------------|--------------|----------------|
D|------6-4-----|----------------|-----------4--|----------------|
A|--4-----------|--2---x----x-6--|--4---x-------|--2-------------|
E|-----------2--|--------4-------|--------2-----|----------------|


[Bridge]

G|---------|---------|-------------|-------------|
D|--4------|--2------|--4-------4--|--2---2------|
A|------2--|------4--|------2------|----------x--|
E|---------|---------|-------------|-------------|


G|-------------|---------------|-------------------|-------------------|
D|-------------|------------4--|--2-2-2-2----------|-------------------|
A|----------7--|--5---2-2-2----|-------------------|-------------------|
E|--0---5------|---------------|----------0-0-0-0--|--5-5-5-5-2-2-2-2--|


[Chorus]

G|---------|--------------------|-----------------|------------|
D|---------|--------------------|------------8-6--|------------|
A|---------|----4-6---6----4-6--|--7---7-6--------|-------6----|
E|--7---7--|--7----------6------|-----------------|--4--4---4--|


G|--------------|-----------------|-----------------|---------------|
D|--------------|-----------------|-----------------|------------4--|
A|--4--------4--|--2---x-----6----|--4---4-6-6-6-6--|--4-------4----|
E|------4-2-----|--------4-4---4--|-----------------|------x-2------|


[Instrumental]

G|---------|------------------|-----------------|----------|
D|---------|------------------|-----------------|----------|
A|---------|----4-6---6----6--|------------4-6--|--6----6--|
E|--7---7--|--7----------6----|--4---4---7------|-----6----|


G|--------------|-----------------|----------------|--------------|
D|------6-4-----|-----------------|-----------x-6--|--4---4--6-4--|
A|--4--------4--|--2---x-----x-6--|--4---x-4-------|--------------|
E|--------------|--------4-4------|----------------|--------------|


G|---------|------------------|-----------------|----------|
D|---------|------------------|-----------------|----------|
A|---------|----4-6---6----6--|------------4-6--|--6----6--|
E|--7---7--|--7----------6----|--4---4---7------|-----6----|


G|---------------|-----------------|--------------|----------------|
D|---------------|-----------------|--------------|----------------|
A|--4---x--------|--2---x-----6----|--4---x-------|--2-------------|
E|--------2---2--|--------4-4---4--|--------2--2--|----------------|


[Bridge]

G|----------|---------|--------------|-------------|
D|--4-------|--2------|--4-------4\--|--2---2------|
A|------2---|------4--|------2-------|----------2--|
E|----------|---------|--------------|-------------|


G|-------------|---------------|-------------------|-------------------|-------------------|
D|-------------|------------4--|--2-2-2-2----------|-------------------|-------------------|
A|----------7--|--5---2-2-2----|-------------------|-------------------|----------1--2--4--|
E|--0---5------|---------------|----------0-0-0-0--|--5-5-5-5-2-2-2-2--|--x-2--4-----------|


[Verse]

G|---------|------------------|-----------------|---------|
D|---------|------------------|-----------------|---------|
A|---------|----4-6---6----6--|------------4-6--|--6------|
E|--7---7--|--7----------6----|--4---4---7------|------6--|


G|---------------|----------------|-----------------|----------------|
D|-----6\--4-----|----------------|--------------6--|--4---4--6-4-2--|
A|--4---------4--|--2---x----x-6--|--4---x-4-4-4----|----------------|
E|---------------|--------4-------|-----------------|----------------|


G|---------|------------------|------------------|----------|
D|---------|-------1---1------|------------------|----------|
A|--2---2--|---2-4---------1--|-------------4-6--|--6----6--|
E|---------|-2----------------|--4---4--4-7------|-----6----|


G|---------------|----------------|--------------|---------------|
D|---------------|----------------|------6-4-----|-----------4\--|
A|--4---x--------|--2---x----x-6--|--4-----------|--2---2--6-----|
E|--------2---2--|--------4-------|-----------2--|---------------|


G|----------------|----------------|----------------|--------------|
D|--2---2--2-2-2--|--3---3--3-3-3--|----------------|-------4---6--|
A|----------------|----------------|--2---2--2------|---------6----|
E|----------------|----------------|-----------2-3--|--4-----------|


G|-------------|-------------|---------------|-------------------------------|
D|-------------|-------------|---------------|--4---4--4----4-------------0--|
A|--4----------|--4----------|--4---4-x---4--|------------4------0--2--3-----|
E|------4---4--|------4---4--|----------4----|----------------3--------------|


[Verse]

G|----------------|--------------|---------------|----------------|
D|-------------0--|--2---2-------|---------------|--2---2----2----|
A|--3---3----3----|---------2----|---------3--5--|---------2---2--|
E|---------3------|-----------0--|--5---5--------|----------------|


G|----------------|--------------|-------------------|---------------|
D|----------------|--------------|------------7-6-5--|--5h7p5-5-0-5--|
A|--5---5----5----|--3---x----7--|--5---5-5-5--------|---------------|
E|--------3----3--|--------5-----|-------------------|---------------|


[Chorus]

G|----------------|--------------|-----------------|----------------|
D|-------------0--|--2---2-------|--3---3-2---2----|-----------2----|
A|--3---3----3----|---------2----|----------3---2--|--0---0--0---0--|
E|---------3------|-----------0--|-----------------|----------------|


G|--------------|----------------|---------------|
D|--------------|-------------2--|--0---0-2---2--|
A|--5---0----5--|--3---3----0----|---------------|
E|--------3-----|--------5-------|---------------|


G|-------------|--------------|-------------|---------|
D|-------------|--------------|-------------|---------|
A|--1---1---1--|--------------|-------------|--3-3-3--|
E|-------------|--3--3-3-3-3--|--4---4---4--|---------|


[Outro]

G|------------|----------------|---------------|-----------------|
D|-----7-6-5--|-----7-6-5-0----|---------------|--------------2--|
A|--5---------|-5--------------|--3---3--------|--3---3-0-0-3----|
E|------------|-------------3--|--------5---5--|-----------------|


G|---------------|-----------------|---------------|-----------------| (x3)
D|---------------|--------------5--|---------------|--------------2--|
A|--5---5--------|--5---5-----5----|--3---3--------|--3---3-0-0-3----|
E|--------3---3--|--------3-3------|--------5---5--|-----------------|



*********************************

| \ : slide down
| h : hammer-on
| p : pull-off
| x : dead note

*********************************

in regular sequence!
Suggest correction
Give kudos to tab author, rate the tab!
1 2 3 4 5
comments
print report bad tab
guest
You may want to rate the tab now too:
select rating
Wanna post a correction for this tab? Suggest correction