Oops, an error
Loading. Please wait.

초생달 Bass Tab

19 views 1 this week
no commentswrite comment
1 2 3 4 5
3 more votes to show rating
add to favorites
launch autoscroll
font size
0
reset
guitar tuner
Autoscroll
slow
fast
+/-
esc
set tempo
stop
Help us to improve Ultimate-Guitar.com Take our survey!
×
Author
Difficulty
novice
Song : https://www.youtube.com/watch?v=0VAYVzyhNnA


[Verse 1]

G|----------------|----------------|----------------|----------------|
D|----------------|----------------|----------------|----------------|
A|----------------|----------------|--0-------------|--1-------------|
E|--0-------------|--4-------------|----------------|----------------|


G|----------------|----------------|----------------|----------------|----------------|
D|----------------|----------------|----------------|----------------|----------------|
A|--2-------------|--0-------------|--4-------------|----------------|----------------|
E|----------------|----------------|----------------|--4-------------|--5-------------|


G|----------------|----------------|----------------|----------------|
D|----------------|----------------|----------------|----------------|
A|----------------|--2-------------|----------------|--4-------------|
E|--2-------------|----------------|--2-------------|----------------|


G|----------------|-----------|----------------|----------------|-----------------|
D|--1-------------|--2--------|----------------|----------------|-----------------|
A|----------------|-----------|----------------|--------r-------|--2--------------|
E|----------------|--------0--|--5-------------|----------------|-----------------|


[Verse 2]

G|----------------|----------------|----------------|----------------|
D|----------------|----------------|----------------|----------------|
A|----------------|----------------|--0-------------|--1-------------|
E|--0-------------|--4-------------|----------------|----------------|


G|----------------|----------------|----------------|----------------|----------------|
D|----------------|----------------|----------------|----------------|----------------|
A|--2-------------|--0-------------|--4-------------|----------------|----------------|
E|----------------|----------------|----------------|--4-------------|--5-------------|


G|----------------|----------------|----------------|----------------|
D|----------------|----------------|----------------|----------------|
A|----------------|--2-------------|----------------|--4-------------|
E|--2-------------|----------------|--2-------------|----------------|


G|----------------|----------------|----------------|----------------|----------------|
D|--1-------------|--2-------------|----------------|----------------|----------------|
A|----------------|----------------|----------------|--------r-------|----------------|
E|----------------|----------------|--5-------------|----------------|--2-------------|


[Chorus]

G|------------|----------------|------------|----------------|
D|------------|-1--------------|--2---------|----------------|
A|--4-------4-|----------------|------------|----------------|
E|------------|----------------|----------0-|-4--------------|


G|------------|---------------|------------|----------------|
D|------------|---------------|------------|----------------|
A|--0-------0-|-1-------------|--2-------2-|-0--------------|
E|------------|---------------|------------|----------------|


G|------------|----------------|---------------|---------------|
D|------------|----------------|---------------|---------------|
A|------------|-4--------------|---------------|--2-------2-2--|
E|--4-------4-|----------------|--2-------2-2--|---------------|


[Instrumental]

G|----------------|----------------|----------------|----------------|
D|----------------|----------------|----------------|----------------|
A|----------------|----------------|--0-------------|--1-------------|
E|--0-------------|--4-------------|----------------|----------------|


G|----------------|----------------|----------------|----------------|----------------|
D|----------------|----------------|----------------|----------------|----------------|
A|--2-------------|--0-------------|--4-------------|----------------|----------------|
E|----------------|----------------|----------------|--4-------------|--5-------------|


G|----------------|----------------|----------------|----------------|
D|----------------|----------------|----------------|----------------|
A|----------------|--2-------------|----------------|--4-------------|
E|--2-------------|----------------|--2-------------|----------------|


G|-------------|----------|---------------|---------------|-----|
D|-------------|----------|---------------|---------------|--4--|
A|--6------4-6-|-7--------|---------------|---------------|-----|
E|-------------|-------0--|--5-------5-5--|--2-------2-2--|-----|


[Chorus]

G|------------|-----------|-----------|----------------|
D|------------|-----------|-----------|----------------|
A|--4-------4-|-6-----4-6-|-7---------|----------------|
E|------------|-----------|---------0-|-4--------------|


G|------------|---------------|------------|----------------|
D|------------|---------------|------------|----------------|
A|--0-------0-|-1-------------|--2-------2-|-0--------------|
E|------------|---------------|------------|----------------|


G|------------|----------------|---------------|---------------|
D|------------|----------------|---------------|---------------|
A|------------|-4--------------|---------------|--2-------2-2--|
E|--4-------4-|----------------|--2-------2-2--|---------------|


[Outro]

G|----------------|----------------|----------------|----------------|
D|----------------|----------------|----------------|----------------|
A|----------------|----------------|--0-------------|--1-------------|
E|--0-------------|--4-------------|----------------|----------------|


G|----------------|----------------|------------|---------------|---------------|---------------|
D|----------------|----------------|------------|---------------|---------------|---------------|
A|--2-------------|--0-------------|------------|-4-------------|---------------|--2-------2-2--|
E|----------------|----------------|--4-------4-|---------------|--2-------2-2--|---------------|


G|----------------|----------------|------------|---------------|
D|----------------|----------------|------------|---------------|
A|----------------|----------------|--0-------0-|-1-------------|
E|--0-------------|--4-------------|------------|---------------|


G|----------------|----------------|------------|---------------|----------------|
D|----------------|----------------|------------|---------------|----------------|
A|--2-------------|--0-------------|--4-------4-|---------------|----------------|
E|----------------|----------------|------------|-4-------------|--5-------------|



**************************

| r : rest

**************************

in regular sequence!
Suggest correction
Give kudos to tab author, rate the tab!
1 2 3 4 5
comments
print report bad tab
guest
You may want to rate the tab now too:
select rating
Wanna post a correction for this tab? Suggest correction