Oops, an error
Loading. Please wait.

Sitkeä Sydän Tab

version 2
version 2

Intro

52 views 1 this week
no commentswrite comment
1 2 3 4 5
3 more votes to show rating
add to favorites
launch autoscroll
font size
0
reset
how to read this tab
guitar tuner
Autoscroll
slow
fast
+/-
esc
set tempo
stop
Help us to improve Ultimate-Guitar.com Take our survey!
×
Author
Difficulty
[Intro]

e|-----------------------------------------------------------------------------|
B|---4/6/-4---------------------7/-9-8-6---------------------------------------|
G|--------5----------5--------------------8-5-5-6-5---5------------------------|
D|----------6-6/-8-8---8-6-8------------------------8--------------------------|
A|-----------------------------------------------------------------------------|
E|-----------------------------------------------------------------------------|

e|-----------------------------------------------------------------------------|
B|-----4/6-/4------------------------------------------------------------------|
G|------------5---------5------------------------------------------------------|
D|--------------6-6/8-8---8-6-5-6-/8-6h-8h-6-----------------------------------|
A|-------------------------------------------6-6/8-----------------------------|
E|-----------------------------------------------------------------------------|

 
************************************

| h   Hammer-on
| /   Slide up

************************************
Suggest correction
Give kudos to tab author, rate the tab!
1 2 3 4 5
comments
print report bad tab
guest
You may want to rate the tab now too:
select rating
Wanna post a correction for this tab? Suggest correction