Oops, an error
Loading. Please wait.

真夏の昼の夢 Bass Tab

7 views 1 this week
no commentswrite comment
1 2 3 4 5
3 more votes to show rating
add to favorites
launch autoscroll
font size
0
reset
guitar tuner
Autoscroll
slow
fast
+/-
esc
set tempo
stop
Help us to improve Ultimate-Guitar.com Take our survey!
×
Author
Difficulty
novice
Song : https://www.youtube.com/watch?v=i-6FwoHT4P8


[Intro]

G|----------------|----------------|----------------------|-------------|
D|--4-------------|--4-------------|--1-2-4----------3/4--|--2-------2--|
A|---------2------|---------2------|-------------2--------|--------2----|
E|----------------|----------------|----------------------|-------------|


[Verse 1]

G|----------------|----------------|---------------------|-------------|
D|--2-3-4---------|--2-------2-----|--2-3-4-------4------|--2-------2--|
A|-------------2--|--------2-------|----------2-------2--|--------2----|
E|----------------|----------------|---------------------|-------------|


G|----------------|------------|---------------|-------------------|
D|-----------2----|------------|----2----------|--2--3-4-----------|
A|--4-2-----------|--2-1-0-----|--4-------2-1--|------------4-3-2--|
E|----------------|------------|---------------|-------------------|


G|----------------|----------------|---------------------|--------------------|
D|--4-------------|--2-------2-----|--2-3-4-------4------|---------------5/6--|
A|---------2------|--------2-------|----------2-------2--|--2----2-3-4--------|
E|----------------|----------------|---------------------|--------------------|


G|----------------|------------------|------------------|-------------|
D|--4-------------|--2-----2-3-------|-3-4-------4------|--2-------2--|
A|----------------|----------------2-|-------2-------2--|--------2----|
E|---------5------|------------------|------------------|-------------|


[Instrumental]

G|----------------|----------------|---------------------|-------------|
D|--5-------------|--3-------3-----|--3-4-5-------5------|--3-------3--|
A|---------3------|--------3-------|----------3-------3--|--------3----|
E|----------------|----------------|---------------------|-------------|


[Verse 2]

G|----------------|--------------3--|-----------------|-----------------------|
D|-----------3----|------------3----|------3----------|--3--4-5---------------|
A|--5-3-----------|--3-2-1----------|--5-3-------3-2--|------------5-4-3---3--|
E|----------------|-----------------|-----------------|-----------------------|


G|----------------|----------------|---------------------|--------------------|
D|--5-------------|--3-------3-----|--3-4-5-------5------|---------------6/7--|
A|---------3------|--------3-------|----------3-------3--|--3----3-4-5--------|
E|----------------|----------------|---------------------|--------------------|


G|-------------------|--------------------|----------------|-------------|
D|--5-----5-7-8------|--3------3-4------4-|-5-------5------|--3-------3--|
A|------5------------|-------3-------3----|-----3-------3--|--------3----|
E|----------------6--|--------------------|----------------|-------------|


[Outro]

G|----------------|----------------|----------------------|--------------|
D|--5-------------|--5-------------|--2-3-5----------4/5--|--3-----------|
A|---------3------|---------3------|-------------3--------|-------1-3----|
E|----------------|----------------|----------------------|-----------1--|



**********************

| / : slide up

**********************

in regular sequence!
Suggest correction
Give kudos to tab author, rate the tab!
1 2 3 4 5
comments
print report bad tab
guest
You may want to rate the tab now too:
select rating
Wanna post a correction for this tab? Suggest correction