Oops, an error
Loading. Please wait.

十七歳の地図 Bass Tab

40 views 1 this week
no commentswrite comment
1 2 3 4 5
3 more votes to show rating
add to favorites
launch autoscroll
font size
0
reset
guitar tuner
Autoscroll
slow
fast
+/-
esc
set tempo
stop
Help us to improve Ultimate-Guitar.com Take our survey!
×
Author
Difficulty
novice
Song : https://www.youtube.com/watch?v=I0eslWbsjM8


[Intro]

G|-------------------|-------------------|-------------------|-------------------| (x2)
D|-------------------|------------0-2----|-------------------|-------------------|
A|--3-3-3-3-3-3-3-3--|--3-3-3-3-3-----3--|--0-2-3-0-0-0-0-0--|--0-0-2-3-0-0-0-0--|
E|-------------------|-------------------|-------------------|-------------------|


[Verse 1]

G|-------------------|-------------------|-------------------|-------------------|
D|-------------------|------------0-2----|-------------------|-------------------|
A|--3-3-3-3-3-3-3-3--|--3-3-3-3-3-----3--|--0-0-0-0-0-0-0-0--|--0-0-0-0-0-2-3-0--|
E|-------------------|-------------------|-------------------|-------------------|


G|-------------------|-------------------|-------------------|-------------------|
D|--0-0-0-0-0-0-0-0--|--0-0-0-0-0-2-3-0--|--5-5-5-5-5-5-5-5--|--5-5-5-5-5-5-5-0--|
A|-------------------|-------------------|-------------------|-------------------|
E|-------------------|-------------------|-------------------|-------------------|


G|-------------------|-------------------|-------------------|-------------------|
D|--2-2-2-2-2-2-2-2--|--2-2-2-2-2-2-2-2--|-------------------|-------------------|
A|-------------------|-------------------|--0-0-0-0-0-0-0-0--|--0-0-0-0-0-2-3-0--|
E|-------------------|-------------------|-------------------|-------------------|


G|-------------------|-------------------|-------------------|-------------------|
D|--0-0-0-0-0-0-0-0--|--0-0-0-0-0-2-3-0--|--5-5-5-5-5-5-5-5--|--5-5-3-3-2-2-0-0--|
A|-------------------|-------------------|-------------------|-------------------|
E|-------------------|-------------------|-------------------|-------------------|


[Verse 2]

G|-------------------|-------------------|-------------------|-------------------|
D|-------------------|------------0-2----|-------------------|-------------------|
A|--3-3-3-3-3-3-3-3--|--3-3-3-3-3-----3--|--0-0-0-0-0-0-0-0--|--0-0-0-0-0-2-3-0--|
E|-------------------|-------------------|-------------------|-------------------|


G|-------------------|-------------------|-------------------|-------------------|
D|--0-0-0-0-0-0-0-0--|--0-0-0-0-0-2-3-0--|-------------------|-------------------|
A|-------------------|-------------------|-------------------|-------------------|
E|-------------------|-------------------|--3-3-3-3-3-3-3-3--|--3-3-3-3-3-3-3-3--|


G|-------------------|-------------------|-------------------|-------------------|
D|-------------------|-------------------|-------------------|-------------------|
A|-------------------|-------------------|--0-0-0-0-0-0-0-0--|--0-0-0-0-0-2-3-0--|
E|--0-0-0-0-0-0-0-0--|--0-0-0-0-0-0-0-0--|-------------------|-------------------|


G|-------------------|-------------------|-------------------|-------------------|
D|--0-0-0-0-0-0-0-0--|--0-0-0-0-0-2-3-0--|--5-5-5-5-5-5-5-5--|--5-5-3-3-2-2-0-0--|
A|-------------------|-------------------|-------------------|-------------------|
E|-------------------|-------------------|-------------------|-------------------|


G|-------------------|-------------------|-------------------|-------------------|
D|--3-3-3-3-3-3-3-3--|--5-5-5-5-5-5-5-5--|-------------------|-------------------|
A|-------------------|-------------------|--3-3-3-3-3-3-3-3--|-------------------|
E|-------------------|-------------------|-------------------|--3-3-3-3-3-3-3-3--|


[Verse 3]

G|-------------------|-------------------|-------------------|-------------------|
D|-------------------|------------0-2----|-------------------|-------------------|
A|--3-3-3-3-3-3-3-3--|--3-3-3-3-3-----3--|--0-0-0-0-0-0-0-0--|--0-0-0-0-0-2-3-0--|
E|-------------------|-------------------|-------------------|-------------------|


G|-------------------|-------------------|-------------------|-------------------|
D|--0-0-0-0-0-0-0-0--|--0-0-0-0-0-2-3-0--|--5-5-5-5-5-5-5-5--|--5-5-5-5-5-5-5-0--|
A|-------------------|-------------------|-------------------|-------------------|
E|-------------------|-------------------|-------------------|-------------------|


G|-------------------|-------------------|-------------------|-------------------|
D|--2-2-2-2-2-2-2-2--|--2-2-2-2-2-2-2-2--|-------------------|-------------------|
A|-------------------|-------------------|--0-0-0-0-0-0-0-0--|--0-0-0-0-0-2-3-0--|
E|-------------------|-------------------|-------------------|-------------------|


G|-------------------|-------------------|-------------------|-------------------|
D|--0-0-0-0-0-0-0-0--|--0-0-0-0-0-2-3-0--|-------------------|--5-5-3-3-2-2-0-0--|
A|-------------------|-------------------|-------------------|-------------------|
E|-------------------|-------------------|--3-3-3-3-3-3-3-3--|-------------------|


[Verse 4]

G|-------------------|-------------------|-------------------|-------------------|
D|-------------------|------------0-2----|-------------------|-------------------|
A|--3-3-3-3-3-3-3-3--|--3-3-3-3-3-----3--|--0-0-0-0-0-0-0-0--|--0-0-0-0-0-2-3-0--|
E|-------------------|-------------------|-------------------|-------------------|


G|-------------------|-------------------|-------------------|-------------------|
D|--0-0-0-0-0-0-0-0--|--0-0-0-0-0-2-3-0--|--5-5-5-5-5-5-5-5--|--5-5-5-5-5-5-5-0--|
A|-------------------|-------------------|-------------------|-------------------|
E|-------------------|-------------------|-------------------|-------------------|


G|-------------------|-------------------|-------------------|-------------------|
D|--2-2-2-2-2-2-2-2--|--2-2-2-2-2-2-2-2--|-------------------|-------------------|
A|-------------------|-------------------|--0-0-0-0-0-0-0-0--|--0-0-0-0-0-2-3-0--|
E|-------------------|-------------------|-------------------|-------------------|


G|-------------------|-------------------|-------------------|-------------------|
D|-------------------|-------------------|-------------------|-------------------|
A|--5-5-5-5-5-5-5-5--|-------------------|--3-3-3-3-3-3-3-3--|-------------------|
E|-------------------|--3-3-3-3-3-3-3-3--|-------------------|--3-3-3-3-3-3-3-3--|


[Chorus]

G|-------------------|--------------|-------------------|--------------|
D|-------------------|--------------|-------------------|--------------|
A|--3-3-3-3-2-2-2-2--|--0---0-------|--3-3-3-3-2-2-2-2--|--0---0-------|
E|-------------------|--------------|-------------------|--------------|


G|-------------------|--------------|-------------------|----------------|
D|-------------------|--------------|-------------------|----------------|
A|--3-3-3-3-2-2-2-2--|--0---0-------|--3-3-3-3-2-2-2-2--|--0-------------|
E|-------------------|--------------|-------------------|------3--3-3-3--|


G|-------------------|-------------------|-------------------|-------------------|
D|-------------------|-------------------|--3-3-3-3-3-3-3-3--|-------------------|
A|-------------------|--3-3-3-3-3-3-3-3--|-------------------|--3-3-3-3-3-3-3-3--|
E|--1-1-1-1-1-1-1-1--|-------------------|-------------------|-------------------|


G|-------------------|-------------------|-------------------|--1---0---------|
D|--3-3-3-3-3-3-3-3--|-------------------|--3-3-3-3-3-3-3-3--|----------------|
A|-------------------|--3-3-3-3-3-3-3-3--|-------------------|----------------|
E|-------------------|-------------------|-------------------|----------------|


G|-------------------|-----------------|-------------------|---------------|
D|-------------------|-----------------|-------------------|---------------|
A|--3-3-3-3-2-2-2-2--|--0-0--0--0-0-0--|--3-3-3-3-2-2-2-2--|--0-0--0--0-0--|
E|-------------------|-----------------|-------------------|---------------|


G|-------------------|----------------|
D|-------------------|----------------|
A|-------------------|----------------|
E|--1-1-1-1-1-1-1-1--|--1-------------|


[Intro repeat]

G|-------------------|-------------------|-------------------|-------------------| (x2)
D|-------------------|------------0-2----|-------------------|-------------------|
A|--3-3-3-3-3-3-3-3--|--3-3-3-3-3-----3--|--0-2-3-0-0-0-0-0--|--0-0-2-3-0-0-0-0--|
E|-------------------|-------------------|-------------------|-------------------|


[Verse 5]

G|-------------------|-------------------|-------------------|-------------------|
D|-------------------|------------0-2----|-------------------|-------------------|
A|--3-3-3-3-3-3-3-3--|--3-3-3-3-3-----3--|--0-0-0-0-0-0-0-0--|--0-0-0-0-0-2-3-0--|
E|-------------------|-------------------|-------------------|-------------------|


G|-------------------|-------------------|-------------------|-------------------|
D|--0-0-0-0-0-0-0-0--|--0-0-0-0-0-2-3-0--|--5-5-5-5-5-5-5-5--|--5-5-5-5-5-5-5-0--|
A|-------------------|-------------------|-------------------|-------------------|
E|-------------------|-------------------|-------------------|-------------------|


G|-------------------|-------------------|-------------------|-------------------|
D|--2-2-2-2-2-2-2-2--|--2-2-2-2-2-2-2-2--|-------------------|-------------------|
A|-------------------|-------------------|--0-0-0-0-0-0-0-0--|--0-0-0-0-0-2-3-0--|
E|-------------------|-------------------|-------------------|-------------------|


G|-------------------|-------------------|-------------------|-------------------|
D|--0-0-0-0-0-0-0-0--|--0-0-0-0-0-2-3-0--|--5-5-5-5-5-5-5-5--|--5-5-3-3-2-2-0-0--|
A|-------------------|-------------------|-------------------|-------------------|
E|-------------------|-------------------|-------------------|-------------------|


G|-------------------|-------------------|-------------------|-------------------|
D|--3-3-3-3-3-3-3-3--|--5-5-5-5-5-5-5-5--|-------------------|-------------------|
A|-------------------|-------------------|--3-3-3-3-3-3-3-3--|-------------------|
E|-------------------|-------------------|-------------------|--3-3-3-3-3-3-3-3--|


[Verse 6]

G|-------------------|-------------------|-------------------|-------------------|
D|-------------------|------------0-2----|-------------------|-------------------|
A|--3-3-3-3-3-3-3-3--|--3-3-3-3-3-----3--|--0-0-0-0-0-0-0-0--|--0-0-0-0-0-2-3-0--|
E|-------------------|-------------------|-------------------|-------------------|


G|-------------------|-------------------|-------------------|-------------------|
D|--0-0-0-0-0-0-0-0--|--0-0-0-0-0-2-3-0--|-------------------|-------------------|
A|-------------------|-------------------|-------------------|-------------------|
E|-------------------|-------------------|--3-3-3-3-3-3-3-3--|--3-3-3-3-3-3-3-3--|


G|-------------------|-------------------|-------------------|-------------------|
D|-------------------|-------------------|-------------------|-------------------|
A|-------------------|-------------------|--0-0-0-0-0-0-0-0--|--0-0-0-0-0-2-3-0--|
E|--0-0-0-0-0-0-0-0--|--0-0-0-0-0-0-0-0--|-------------------|-------------------|


G|-------------------|-------------------|-------------------|-------------------|
D|-------------------|-------------------|-------------------|-------------------|
A|--5-5-5-5-5-5-5-5--|-------------------|--3-3-3-3-3-3-3-3--|-------------------|
E|-------------------|--3-3-3-3-3-3-3-3--|-------------------|--3-3-3-3-3-3-3-3--|


[Chorus]

G|-------------------|--------------|-------------------|--------------|
D|-------------------|--------------|-------------------|--------------|
A|--3-3-3-3-2-2-2-2--|--0---0-------|--3-3-3-3-2-2-2-2--|--0---0-------|
E|-------------------|--------------|-------------------|--------------|


G|-------------------|--------------|-------------------|----------------|
D|-------------------|--------------|-------------------|----------------|
A|--3-3-3-3-2-2-2-2--|--0---0-------|--3-3-3-3-2-2-2-2--|--0-------------|
E|-------------------|--------------|-------------------|------3--3-3-3--|


G|-------------------|-------------------|-------------------|-------------------|
D|--3-3-3-3-3-3-3-3--|-------------------|--3-3-3-3-3-3-3-3--|-------------------|
A|-------------------|--3-3-3-3-3-3-3-3--|-------------------|--3-3-3-3-3-3-3-3--|
E|-------------------|-------------------|-------------------|-------------------|


G|-------------------|-------------------|-------------------|--1---0---------|
D|--3-3-3-3-3-3-3-3--|-------------------|--3-3-3-3-3-3-3-3--|----------------|
A|-------------------|--3-3-3-3-3-3-3-3--|-------------------|----------------|
E|-------------------|-------------------|-------------------|----------------|


G|-------------------|-----------------|-------------------|---------------|
D|-------------------|-----------------|-------------------|---------------|
A|--3-3-3-3-2-2-2-2--|--0-0--0--0-0-0--|--3-3-3-3-2-2-2-2--|--0-0--0--0-0--|
E|-------------------|-----------------|-------------------|---------------|


G|-------------------|----------------|
D|-------------------|----------------|
A|-------------------|----------------|
E|--1-1-1-1-1-1-1-1--|--1-------------|


[Outro]

G|-------------------|-------------------|-------------------|-------------------| (x3)
D|-------------------|------------0-2----|-------------------|-------------------|
A|--3-3-3-3-3-3-3-3--|--3-3-3-3-3-----3--|--0-2-3-0-0-0-0-0--|--0-0-2-3-0-0-0-0--|
E|-------------------|-------------------|-------------------|-------------------|


G|-------------------|-------------------|-------------------|-----------| 
D|-------------------|------------0-2----|-------------------|-----------|
A|--3-3-3-3-3-3-3-3--|--3-3-3-3-3-----3--|--0-2-3-0-0-0-0-0--|--0-0-0-0--|
E|-------------------|-------------------|-------------------|-----------|



************************

in regular sequence!

************************
Suggest correction
Give kudos to tab author, rate the tab!
1 2 3 4 5
comments
print report bad tab
guest
You may want to rate the tab now too:
select rating
Wanna post a correction for this tab? Suggest correction