Oops, an error
Loading. Please wait.

Valborg Tab

version 3
version 3

Whole song

91 views 12 this week
no commentswrite comment
1 2 3 4 5
3 more votes to show rating
add to favorites
launch autoscroll
font size
0
reset
how to read this tab
guitar tuner
Autoscroll
slow
fast
+/-
esc
set tempo
stop
Help us to improve Ultimate-Guitar.com Take our survey!
×
Author
Difficulty
novice
About this tab version
A tab of the songs melody. Was this info helpful? Yes No
[Verse 1]
E|---------7--8--10--7------------------7------8--7--10---------7--8--10--7--14--12--12--12--12--10--8--|
B|--8--10---------------------7--8--10-----10------------8--10------------------------------------------|
G|----------------------9--9----------------------------------------------------------------------------|
D|------------------------------------------------------------------------------------------------------|
A|------------------------------------------------------------------------------------------------------|
E|------------------------------------------------------------------------------------------------------|

E|--7------12--10--8--7------------------7--8--10--10--8--8--8--7----------------------------7----------|
B|-----10----------------10--10--10--10----------------------------10--8-----------7--8--10-----10--10--|
G|------------------------------------------------------------------------9--9--9-----------------------|
D|------------------------------------------------------------------------------------------------------|
A|------------------------------------------------------------------------------------------------------|
E|------------------------------------------------------------------------------------------------------|

E|--8--7------------------7----------8--7-----|
B|--------8-----7--8--10-----10--10--------8--|
G|-----------9--------------------------------|
D|--------------------------------------------|
A|--------------------------------------------|
E|--------------------------------------------|

[Verse 2]
E|---------7--8--10--7-----7--7--7--7----------7--8--10---------7--10--10--7--7--14--12--12--12--10--8--|
B|--8--10------------------------------10--10------------8--10------------------------------------------|
G|----------------------9-------------------------------------------------------------------------------|
D|------------------------------------------------------------------------------------------------------|
A|------------------------------------------------------------------------------------------------------|
E|------------------------------------------------------------------------------------------------------|

E|--7------12--10--8----------7--8--10--10--8--8--8--7----------------------------7----------8--7-----|
B|-----10-------------10--10----------------------------10--8-----------7--8--10-----10--10--------8--|
G|-------------------------------------------------------------9--9--9--------------------------------|
D|----------------------------------------------------------------------------------------------------|
A|----------------------------------------------------------------------------------------------------|
E|----------------------------------------------------------------------------------------------------|

E|---------------7----------8--7-----|
B|-----7--8--10-----10--10--------8--|
G|--9--------------------------------|
D|-----------------------------------|
A|-----------------------------------|
E|-----------------------------------|
Suggest correction
Give kudos to tab author, rate the tab!
1 2 3 4 5
comments
print report bad tab
guest
You may want to rate the tab now too:
select rating
Wanna post a correction for this tab? Suggest correction