Oops, an error
Loading. Please wait.

Valoon Päin Tab

7 views 1 this week
no commentswrite comment
1 2 3 4 5
3 more votes to show rating
add to favorites
launch autoscroll
font size
0
reset
how to read this tab
guitar tuner
Autoscroll
slow
fast
+/-
esc
set tempo
stop
Help us to improve Ultimate-Guitar.com Take our survey!
×
Author
Difficulty
novice
Guitar Intro:


E|--------------------------------------------------------------------------------|
B|--------------------------------------------------------------------------------|
G|-----------------------------4-----2--------------------------------------------|
D|--------------2--------2--4-----------5--4-----5--4--2-----4--2--------2--4-----|
A|--5-----4--5--------5--------------------------------------------5-----------4--|
E|--------------------------------------------------------------------------------|

E|--------------------------------|-----------------------------------------------------|
B|--------------------------------|-----------------------------------------------------|
G|-----------------------------4--|-----------------------------------------------------|
D|--------------2--------2--4-----|--5--2--------2--4-----------2-----------4-----------|
A|--5-----4--5--------5-----------|--------5-----------4-----5-----2-----------5--4--2--|
E|--------------------------------|-----------------------------------------------------|


Verse:

E|-----------------------------------|-------------------------|------------------------------|
B|-----------------------------------|-------------------------|------------------------------|
G|-----------------------------------|----------------2--------|--4--2----------2--2----------|
D|-----------------------------------|--4--4--5--5h2-----5--4--|--------5--4h5-------5--4-----|
A|--2h4--5-----5h5--4-----5h4--2-----|-------------------------|---------------------------2--|
E|--------------------------------2--|-------------------------|------------------------------|


E|----------------------------|-----------------------------|------------------------|
B|----------------------------|-----------------------------|------------------------|
G|----------------------------|-----------------------------|--------------2---------|
D|----------------2-----2-----|--4h2------------------------|--4h4--5--5h2-----5--4--|
A|--2--4--5--5h5-----5-----4--|-------5--5h5--4--5h4--2-----|------------------------|
E|----------------------------|--------------------------2--|------------------------|


E|------------------------------|-------------------------------|
B|------------------------------|-------------------------------|
G|--4--2----------2--2h------4--|-------------------------------|
D|--------5--4h5-------5--4-----|----5--2--4--2-----2-----------|
A|------------------------------|----------------5-----5--4--2--|
E|------------------------------|-------------------------------|
Suggest correction
Give kudos to tab author, rate the tab!
1 2 3 4 5
comments
print report bad tab
guest
You may want to rate the tab now too:
select rating
Wanna post a correction for this tab? Suggest correction