Oops, an error
Loading. Please wait.

Myrskyn Jälkeen Tab

163 views 9 this week
no commentswrite comment
1 2 3 4 5
3 more votes to show rating
add to favorites
launch autoscroll
font size
0
reset
how to read this tab
guitar tuner
Autoscroll
slow
fast
+/-
esc
set tempo
stop
Help us to improve Ultimate-Guitar.com Take our survey!
×
Author
Difficulty
novice
Guitar Intro:


E|--------------------------|--------------------------------|-----------------------|
B|--------------------------|--------------------------------|-----------------------|
G|--------------------------|--------------------------------|-----------------------|
D|--3--------------5--3--2--|--------------------------------|--------------------3--|
A|-----------2--5-----------|--2--2--3--5--------------3--5--|--------------3--------|
E|--------------------------|--------------5--------5--------|-----5-----5-----5-----|



E|----------------|--------------------|
B|----------------|--------------------|
G|----------------|--------------------|
D|--3--2--5--3h2--|--------------------|
A|----------------|--2--2--3--5--------|
E|----------------|--------------5-----|
                               
                                 ressu83
Suggest correction
Give kudos to tab author, rate the tab!
1 2 3 4 5
comments
print report bad tab
guest
You may want to rate the tab now too:
select rating
Wanna post a correction for this tab? Suggest correction