Oops, an error
Loading. Please wait.

Brennisteinn Bass Tab

version 2
version 2

Whole song

61 views 3 this week
no commentswrite comment
1 2 3 4 5
3 more votes to show rating
add to favorites
launch autoscroll
font size
0
reset
guitar tuner
Autoscroll
slow
fast
+/-
esc
set tempo
stop
Help us to improve Ultimate-Guitar.com Take our survey!
×
Author
Difficulty
novice
Standard Tunning (E, D, A, E)

[Intro]
G|---------------------|
D|---------------------|
A|-3----3----3----3----|
E|---------------------|

G|---------------------|
D|---------------------|
A|-3----3-3--3----3-3--| x4
E|---------------------|

[Main Riff] (x2)
G|---------------------|
D|---------------------|
A|-6----6-6--6----6-6--|
E|---------------------|

G|---------------------|
D|---------------------|
A|---6--6-6--6----6-6--|
E|-6-------------------|

G|---------------------|
D|---------------------|
A|-1----1-1--1----1-1--|
E|---------------------|

G|---------------------|
D|---------------------|
A|-3----3-3--3----3-3--|
E|---------------------|

[Chorus]
G|---------------------|
D|---------------------|
A|------1----3----6----| x2
E|-3-------------------|

G|----------------------------|
D|----------------------------|
A|------1----3----3----3----3-|
E|-3--------------------------|

[Chorus ending]
G|---------------------|
D|---------------------|
A|-3----3-3--3----3-3--| x2
E|---------------------|

[Main riff]
G|---------------------|
D|---------------------|
A|-6----6-6--6----6-6--|
E|---------------------|

G|---------------------|
D|---------------------|
A|---6--6-6--6----6-6--|
E|-6-------------------|

G|---------------------|
D|---------------------|
A|-1----1-1--1----1-1--|
E|---------------------|

G|---------------------|
D|---------------------|
A|-3----3-3--3----3-3--|
E|---------------------|

[Chorus]
G|---------------------|
D|---------------------|
A|------1----3----6----| x3
E|-3-------------------|

G|----------------------------|
D|----------------------------|
A|------1----3----------------|
E|-3--------------------------|

[Bridge]
G|---------------------------|
D|-15----------------10--14--|
A|-----15----11--10----------|
E|---------------------------|

G|-------------------|
D|-15----------------|
A|-----15----11--10--|
E|-------------------|

G|-----------|
D|-----------|
A|-15(x18)---|
E|-----------|

G|----------------------|
D|----------------------| (also played as chords as in root note and fifth)
A|--8--3----------3--6--| x2
E|----------4--3--------|

[Ending]
G|----------------------------|
D|----------------------------|
A|-10(x8)--8(x8)--3(x8)--6(x8)|
E|----------------------------|

G|----------------------------|
D|----------------------------|
A|----------------3(x8)--6(x8)| x2
E|--3(x8)--6(x8)--------------|

G|----------------------------|
D|----------------------------|
A|-10(x8)--8(x8)--3(x8)--6(x8)|
E|----------------------------|

G|----------------------------|
D|----------------------------|
A|-10(x8)--8(x8)--3(x8)--6(x8)|
E|----------------------------|

G|------------------------------------|
D|------------------------------------|
A|-10(x8)--8(x8)--3-3-3-3-3-3-3-3-3-3-|
E|------------------------------------| 
Suggest correction
Give kudos to tab author, rate the tab!
1 2 3 4 5
comments
print report bad tab
guest
You may want to rate the tab now too:
select rating
Wanna post a correction for this tab? Suggest correction