Oops, an error
Loading. Please wait.

ナイアガラ・ムーンがまた輝けば Bass Tab

13 views 1 this week
no commentswrite comment
1 2 3 4 5
3 more votes to show rating
add to favorites
launch autoscroll
font size
0
reset
guitar tuner
Autoscroll
slow
fast
+/-
esc
set tempo
stop
Help us to improve Ultimate-Guitar.com Take our survey!
×
Author
Difficulty
novice
[Verse 1]

G|----------------|----------------|--5-------------5--|----------------|
D|----------------|-------7--5-----|--------3----6-----|-------5--6--7--|
A|--3-------------|--4----------8--|-----3-------------|--3-------------|
E|----------------|----------------|-------------------|----------------|


G|------------|-----------|-----------|
D|------------|--5--------|--5--------|
A|--0--7-6-5--|--------3--|--------3--|
E|------------|-----3-----|-----3-----|


[Verse 2]

G|----------------|--5-------------5---|---------------|------------|--------------------|
D|-------7--5-----|--------3----6----3-|------5--6--7--|------------|--5---------5-------|
A|--4----------8--|-----3--------------|-3-------------|--0--7-6-5--|--------3-----------|
E|----------------|--------------------|---------------|------------|-----3---------x-3--|


[Verse 3]

G|---------------|-------------|-------------|-----7-------|
D|------10-------|-----9-------|-----7-------|--------7--6-|
A|--8----------8-|-7---------7-|--------7--6-|-5-----------|
E|----------8----|--------7----|-5-----------|-------------|


G|-----7--------|-----5--------|-----7-------|----------------|
D|-5------5-----|--------5-----|--------7--6-|-5------4--7-5--|
A|------------2-|-3--------3-4-|-5-----------|-----5----------|
E|----------3---|--------------|-------------|----------------|


[Verse 4]

G|----------------|----------------|--5-------------5---|---------------|
D|----------------|-------7--5-----|--------3----6----3-|------5--6--7--|
A|--------r-------|--4----------8--|-----3--------------|-3-------------|
E|----------------|----------------|--------------------|---------------|


G|------------|---------------------|
D|------------|--5---------5--------|
A|--0--7-6-5--|--------3----------3-|
E|------------|-----3---------x-3---|


G|--------6--|---------|-----|-------------|----|
D|-----------|------5--|-----|------5----5-|----|
A|--4--------|--3------|--4--|--3----------|-3--|
E|-----------|---------|-----|-------------|----|


[Instrumental]

G|----------------|----------------|--5-------------5--|----------------|
D|----------------|-------7--5-----|--------3----6-----|-------5--6--7--|
A|--3-------------|--4----------8--|-----3-------------|--3-------------|
E|----------------|----------------|-------------------|----------------|


G|------------|-----------|--------|
D|------------|--5--------|--5--4--|
A|--7----7-5--|--------3--|--------|
E|-----5------|-----3-----|--------|


[Verse 5]

G|---------------|-------------|-------------|--------7----|
D|------10-------|-----9-------|-----7-------|-----7-----7-|
A|--8----------8-|-7---------7-|--------7--6-|-5-----------|
E|----------8----|--------7----|-5-----------|-------------|


G|-----7-------|---------5---|--------7----|----------------|
D|-5------5----|-----5-------|-----7-----7-|-5------4--7-5--|
A|-----------5-|-3---------3-|-5-----------|-----5----------|
E|-------------|-------------|-------------|----------------|


[Verse 6]

G|----------------|----------------|--5-------------5---|---------------|
D|----------------|-------7--5-----|--------3----6----3-|------5--6--7--|
A|--------r-------|--4----------8--|-----3--------------|-3-------------|
E|----------------|----------------|--------------------|---------------|


G|------------|---------------------|
D|------------|--5---------5--------|
A|--0--7-6-5--|--------3----------3-|
E|------------|-----3---------x-3---|

[Outro]

G|------6-------|-------------|-----6-------|-------------|-----6-------|-------------|
D|------------6-|-----5-----5-|-----------6-|-----5-----5-|-----------6-|-----5-----5-|
A|--4------4----|-3------3----|-4------4----|-3------3----|-4------4----|-3------3----|
E|--------------|-------------|-------------|-------------|-------------|-------------|


G|------4/5--5--|-------5--5--|-------5--5--|-------5--5--|-------5--5--|-------5--5--|-------5--5--|
D|--------------|-------------|-------------|-------------|-------------|-------------|-------------|
A|-3------------|--3----------|--3----------|--3----------|--3----------|--3----------|--3----------|
E|--------------|-------------|-------------|-------------|-------------|-------------|-------------|

                                                                                     
G|-------5--5--|-------5--5--|-------5--5--|-------5--5--|-------5--5--|-------5--5--|-------5--5--|
D|-------------|-------------|-------------|-------------|-------------|-------------|-------------|
A|--3----------|--3----------|--3----------|--3----------|--3----------|--3----------|--3----------|
E|-------------|-------------|-------------|-------------|-------------|-------------|-------------|


(fade out)



**********************

| / : slide up
| x : dead note
| r : rest

**********************

in regular sequence!
Suggest correction
Give kudos to tab author, rate the tab!
1 2 3 4 5
comments
print report bad tab
guest
You may want to rate the tab now too:
select rating
Wanna post a correction for this tab? Suggest correction