Oops, an error
Loading. Please wait.

ハートじかけのオレンジ Bass Tab

19 views 3 this week
no commentswrite comment
1 2 3 4 5
3 more votes to show rating
add to favorites
launch autoscroll
font size
0
reset
guitar tuner
Autoscroll
slow
fast
+/-
esc
set tempo
stop
Help us to improve Ultimate-Guitar.com Take our survey!
×
Author
Difficulty
novice
Song : https://www.youtube.com/watch?v=FlhL0w6m-aY&list=PLPMS55j3MohvaNuyOY-2c-OpGV2qoFDtP&index=8


[Intro]

G|--------------|---------6-4-3-|-------------|---------6-4-3-|
D|--4---4-------|---------------|-4---4-------|---------------|
A|--------6---6-|-------4-------|-------6---6-|-------4-------|
E|--------------|-4---4---------|-------------|-4---4---------|


G|----------------|----------------|
D|----------------|----------------|
A|--------r-------|--------r-------|
E|----------------|----------------|


[Verse]

G|--------------|---------6-4-3-|-------------|---------6-4-3-|
D|--4-----4-----|---------------|-4-----4-----|---------------|
A|------4-----1-|-2---3-4-------|-----4-----1-|-2---3-4-------|
E|--------------|---------------|-------------|---------------|


G|-------------|---------6-4-3-|-------------|---------6-4-3-|
D|-4-----4-----|---------------|-4-----4---4-|-6-------------|
A|-----4-----1-|-2---3-4-------|-----4-------|-----4-x-------|
E|-------------|---------------|-------------|---------------|


G|--------------|---------6-4-3-|-------------|---------6-4-3-|
D|--4-----4-----|---------------|-4-----4-----|---------------|
A|------4-----1-|-2---3-4-------|-----4-----1-|-2---3-4-------|
E|--------------|---------------|-------------|---------------|


G|-------------|---------6-4-3-|---------------|---------------|
D|-4-----4-----|---------------|-x--4----------|-4--4-4--4-3-1-|
A|-----4-----1-|-2---3-4-------|-------2--2--2-|---------------|
E|-------------|---------------|---------------|---------------|


[Chorus]

G|----------------|----------------|----------------|----------------|
D|----------------|--4---4-4-------|--6---6---------|----------------|
A|-4---4-4--------|----------------|--------4-------|--6---6-6-------|
E|----------------|----------------|----------------|----------------|


G|-----------0-2-|-3---3-3--------|----------|---------------|
D|--3---3-3------|----------------|--1-------|---------------|
A|---------------|----------------|-------4--|--3---1--4-4-4-|
E|---------------|----------------|----------|---------------|


[Verse]

G|--------------|---------6-4-3-|-------------|---------6-4-3-|
D|--4-----4-----|---------------|-4-----4-----|---------------|
A|------4-----1-|-2---3-4-------|-----4-----1-|-2---3-4-------|
E|--------------|---------------|-------------|---------------|


G|-------------|---------6-4-3-|------------|--------------|
D|-4-----4-----|---------------|-x--4-------|--------------|
A|-----4-----1-|-2---3-4-------|-------x-2--|--4---2---4-4-|
E|-------------|---------------|------------|--------------|


[Instrumental]

G|-------------|---------6-4-3-|-------------|---------6-4-3-|
D|-4-----4-----|---------------|-4-----4-----|---------------|
A|-----4-----1-|-2---3-4-------|-----4-----1-|-2---3-4-------|
E|-------------|---------------|-------------|---------------|


G|-------------|---------6-4-3-|---------------|---------------|
D|-4-----4-----|---------------|-x--4----------|-4--4-4--4-3-1-|
A|-----4-----1-|-2---3-4-------|-------2--2--2-|---------------|
E|-------------|---------------|---------------|---------------|


[Chorus]

G|----------------|----------------|----------------|----------------|
D|----------------|--4---4-4-------|--6---6---------|----------------|
A|-4---4-4--------|----------------|--------4-------|--6---6-6-------|
E|----------------|----------------|----------------|----------------|


G|-----------0-2-|-3---3-3--------|----------|--------6--6-6-6--6-6-|
D|--3---3-3------|----------------|--1-------|----------------------|
A|---------------|----------------|-------4--|--3-------------------|
E|---------------|----------------|----------|------6---------------|


[Verse]

G|--------------|---------6-4-3-|-------------|---------6-4-3-|
D|--4-----4-----|---------------|-4-----4-----|---------------|
A|------4-----1-|-2---3-4-------|-----4-----1-|-2---3-4-------|
E|--------------|---------------|-------------|---------------|


G|-------------|---------6-4-3-|---------------|---------------|
D|-4-----4-----|---------------|---------------|---------------|
A|-----4-----1-|-2---3-4-------|-------r-------|-------r-------|
E|-------------|---------------|---------------|---------------|


[Bridge]

G|----------------|--------------|-------------|-------3---3-----------------|
D|----------------|--6---6-6---6-|-3---3-3---3-|-4---4-----------------------|
A|--6---6-6-------|--------------|-------------|--------------4-4-4-4-4-4-4--|
E|----------------|--------------|-------------|-----------------------------|


G|----------------|----------------|
D|----------------|----------------|
A|--------r-------|--------r-------|
E|----------------|----------------|


[Verse]

G|--------------|---------6-4-3-|-------------|---------6-4-3-|
D|--4-----4-----|---------------|-4-----4-----|---------------|
A|------4-----1-|-2---3-4-------|-----4-----1-|-2---3-4-------|
E|--------------|---------------|-------------|---------------|


G|-------------|---------6-4-3-|-------------|---------6-4-3-|
D|-4-----4-----|---------------|-4-----4---4-|-6-------------|
A|-----4-----1-|-2---3-4-------|-----4-------|-----4-x-------|
E|-------------|---------------|-------------|---------------|


[Outro]

G|--------------|---------6-4-3-|-------------|---------6-4-3-|
D|--4-----4-----|---------------|-4-----4-----|---------------|
A|------4-----1-|-2---3-4-------|-----4-----1-|-2---3-4-------|
E|--------------|---------------|-------------|---------------|


G|-------------|---------6-4-3-|------4----3----1--|----------|-----------|
D|-4-----4-----|---------------|-4-----------------|----------|-----------|
A|-----4-----1-|-2---3-4-------|-------------------|----------|-----------|
E|-------------|---------------|-------------------|--2----2--|-x-2--2-2--|



********************

| x : dead note
| r : rest

********************

in regular sequence!
Suggest correction
Give kudos to tab author, rate the tab!
1 2 3 4 5
comments
print report bad tab
guest
You may want to rate the tab now too:
select rating
Wanna post a correction for this tab? Suggest correction