Oops, an error
Loading. Please wait.

五月雨 Bass Tab

16 views 1 this week
no commentswrite comment
1 2 3 4 5
3 more votes to show rating
add to favorites
launch autoscroll
font size
0
reset
guitar tuner
Autoscroll
slow
fast
+/-
esc
set tempo
stop
Help us to improve Ultimate-Guitar.com Take our survey!
×
Author
Difficulty
novice
Song : https://www.youtube.com/watch?v=LR_CYeLzpkQ


Bass Start - 00:09


[Verse]

G|---------------|-------4-2-----|---------------|-------4-2-----| (x2)
D|---------------|-----4------4--|---------------|-----4------4--|
A|-------2-------|--2------------|-------2-------|--2------------|
E|--0--4---2--0--|---------------|--0--4---2--0--|---------------|


[Chorus]

G|--------------|----------|----------------|------------------|
D|--------------|----------|----------------|------------------|
A|--------------|----------|----------------|----2-2-2-2-2-2-2-|
E|--5---5-4---4-|-3---3-2--|--0---0-0-------|------------------|


[Verse]

G|--------------|-------4-2-----|---------------|-------4-2-----| (x2)
D|--------------|-----4------4--|---------------|-----4------4--|
A|------2-------|--2------------|-------2-------|--2------------|
E|-0--4---2--0--|---------------|--0--4---2--0--|---------------|


[Chorus]

G|--------------|----------|----------------|-------------------|
D|--------------|----------|----------------|-------------------|
A|--------------|----------|----------------|---------r---------|
E|--5---5-4---4-|-3---3-2--|--0---0-0-------|-------------------|


[Bridge]

G|----------------|----------------|----------------|----------------|
D|----------------|----------------|----------------|----------------|
A|--4-------------|----------------|----------------|--2-------------|
E|----------------|--4----4--------|--5-------------|----------------|


G|----------------|----------------|----------------|----------------|
D|----------------|----------------|----------------|----------------|
A|--4-------------|----------------|----------------|--2---2-2-2-2-2-|
E|----------------|--4-------------|--5-------------|----------------|


[Chorus]

G|-------------|----------|----------------|-------------------|
D|-------------|----------|----------------|-------------------|
A|-------------|----------|----------------|-------------------|
E|-5---5-4---4-|-3---3-2--|--0---0-0-------|--0---0-0----------|


[Verse]

G|---------------|-------4-2-----|---------------|-------4-2-----| (x2)
D|---------------|-----4------4--|---------------|-----4------4--|
A|-------2-------|--2------------|-------2-------|--2------------|
E|--0--4---2--0--|---------------|--0--4---2--0--|---------------|


[Chorus]

G|--------------|----------|----------------|-----------------|
D|--------------|----------|----------------|-----------------|
A|--------------|----------|----------------|----2-2-2-0-0-2--|
E|--5---5-4---4-|-3---3-2--|--0---0-0-------|-----------------|


G|--------------|----------|----------------|------------------|
D|--------------|----------|----------------|------------------|
A|--------------|----------|----------------|----2-2-2-2-2-2-2-|
E|--5---5-4---4-|-3---3-2--|--0---0-0-------|------------------|


[Outro] (repeat until the end)

G|--------------|--------------|-------4-2-----|-------4-2-----|
D|--------------|--------------|-----4------4--|--4--4------4--|
A|------2-------|------2-------|--2------------|---------------|
E|-0--4---2--0--|----4---2--0--|---------------|---------------|



**********************

| r : rest

**********************

in regular sequence!
Suggest correction
Give kudos to tab author, rate the tab!
1 2 3 4 5
comments
print report bad tab
guest
You may want to rate the tab now too:
select rating
Wanna post a correction for this tab? Suggest correction