Oops, an error
Loading. Please wait.

Den Som Dör Får Se Tab

37 views 3 this week
no commentswrite comment
1 2 3 4 5
3 more votes to show rating
add to favorites
launch autoscroll
font size
0
reset
how to read this tab
guitar tuner
Autoscroll
slow
fast
+/-
esc
set tempo
stop
Help us to improve Ultimate-Guitar.com Take our survey!
×
Author
Difficulty
intermediate
About this tab version
Acoustic live version of the song. Was this info helpful? Yes No
Artist: Markus Krunegård
Låt: Den Som Dör Får Se/Markus Kyrkogård
Tuning: Standard

Note: Denna variant är som Markus spelade live på Orust, se YouTube här https://youtu.be/aauYFN9gZlU. Enjoy :)

[Intro]
e|---------------------------------|----------------------------------|
B|---------------3-----------------|---------------3------------------|
G|-------0-----------0-------0-----|-------0-----------0-------0------|
D|---4-------4-----------4-------4-|---4-------4-----------4-------4--|   x 2
A|-5---5---5---5---5---5---5---5---|-5---5---5---5---5---5---5---5----|
E|---------------------------------|----------------------------------|


[Verse]

  Vaknar på rygg....    
e|---------------------------------|----------------------------------|
B|---------------3-----------------|---------------3------------------|
G|-------0-----------0-------0-----|-------0-----------0-------0------|
D|---4-------4-----------4-------4-|---4-------4-----------4-------4--|
A|-5---5---5---5---5---5---5---5---|----------------------------------|
E|---------------------------------|-0---0---0---0---0---0---0---0----|
   Får jag va här fast jag inte är död?                                    x 4
e|---------------------------------|----------------------------------|
B|---------------3-----------------|---------------3------------------|
G|-------0-----------0-------0-----|-------0-----------0-------0------|
D|---4-------4-----------4-------4-|---4-------4-----------4-------4--|
A|---------------------------------|-5---5---5---5---5---5---5---5----|
E|-3---3---3---3---3---3---3---3---|----------------------------------|

[Chorus]

   Och jag har vart kär....
e|---------------------------------|----------------------------------|
B|---------------3-----------------|---------------3------------------|
G|-------0-----------0-------0-----|-------0-----------0-------0------|
D|---4-------4-----------4-------4-|---4-------4-----------4-------4--|   x 2
A|---------------------------------|-5---5---5---5---0---0---0---0----|
E|-3---3---3---3---3---3---3---3---|----------------------------------|

   Vet mycket mer än jag, har sett mer än jag. Men jag vet att den som dör får
e|---------------------------------|----------------------------------|
B|---------------3-----------------|---------------3------------------|
G|-------0-----------0-------0-----|-------0-----------0-------0------|
D|---4-------4-----------4-------4-|---4-------4-----------4-------4--|
A|---------------------------------|-0---0---0---0---0---0---0---0----|
E|-3---3---3---3---3---3---3---3---|----------------------------------|

   se.
e|---------------------------------|----------------------------------|
B|---------------3-----------------|---------------3------------------|
G|-------0-----------0-------0-----|-------0-----------0-------0------|
D|---4-------4-----------4-------4-|---4-------4-----------4-------4--|   x 2
A|-5---5---5---5---5---5-----------|-------------------------0---0----|
E|-------------------------0---0---|-3---3---3---3---3---3------------|

[Interlude]
e|---------------------------------|----------------------------------|
B|---------------3-----------------|---------------3------------------|
G|-------0-----------0-------0-----|-------0-----------0-------0------|
D|---4-------4-----------4-------4-|---4-------4-----------4-------4--|
A|-5---5---5---5---5---5---5---5---|-5---5---5---5---5---5---5---5----|
E|---------------------------------|----------------------------------|



[Verse]

  Martin ringer, vi bestämmer träff....  
e|---------------------------------|----------------------------------|
B|---------------3-----------------|---------------3------------------|
G|-------0-----------0-------0-----|-------0-----------0-------0------|
D|---4-------4-----------4-------4-|---4-------4-----------4-------4--|
A|-5---5---5---5---5---5---5---5---|----------------------------------|
E|---------------------------------|-0---0---0---0---0---0---0---0----|
   "Du är störd men du har koll"....                                       x 4
e|---------------------------------|----------------------------------|
B|---------------3-----------------|---------------3------------------|
G|-------0-----------0-------0-----|-------0-----------0-------0------|
D|---4-------4-----------4-------4-|---4-------4-----------4-------4--|
A|---------------------------------|-5---5---5---5---5---5---5---5----|
E|-3---3---3---3---3---3---3---3---|----------------------------------|

[Chorus]
   Och jag har vart kär....
e|---------------------------------|----------------------------------|
B|---------------3-----------------|---------------3------------------|
G|-------0-----------0-------0-----|-------0-----------0-------0------|
D|---4-------4-----------4-------4-|---4-------4-----------4-------4--|   x 2
A|---------------------------------|-5---5---5---5---0---0---0---0----|
E|-3---3---3---3---3---3---3---3---|----------------------------------|

   
e|---------------------------------|----------------------------------|
B|---------------3-----------------|---------------3------------------|
G|-------0-----------0-------0-----|-------0-----------0-------0------|
D|---4-------4-----------4-------4-|---4-------4-----------4-------4--|
A|---------------------------------|-0---0---0---0---0---0---0---0----|
E|-3---3---3---3---3---3---3---3---|----------------------------------|

   
e|---------------------------------|----------------------------------|
B|---------------3-----------------|---------------3------------------|
G|-------0-----------0-------0-----|-------0-----------0-------0------|
D|---4-------4-----------4-------4-|---4-------4-----------4-------4--|   x 2
A|-5---5---5---5---5---5-----------|-------------------------0---0----|
E|-------------------------0---0---|-3---3---3---3---3---3------------|

[Interlude]
e|---------------------------------|----------------------------------|
B|---------------3-----------------|---------------3------------------|
G|-------0-----------0-------0-----|-------0-----------0-------0------|
D|---4-------4-----------4-------4-|---4-------4-----------4-------4--|
A|-5---5---5---5---5---5---5---5---|-5---5---5---5---5---5---5---5----|
E|---------------------------------|----------------------------------|


[Verse]

    Det är fortfarande varmt i luften.....
e|---------------------------------|----------------------------------|
B|---------------3-----------------|---------------3------------------|
G|-------0-----------0-------0-----|-------0-----------0-------0------|
D|---4-------4-----------4-------4-|---4-------4-----------4-------4--|
A|-5---5---5---5---5---5---5---5---|----------------------------------|
E|---------------------------------|-0---0---0---0---0---0---0---0----|
   Sommaren tog slut idag...                                              x 4
e|---------------------------------|----------------------------------|
B|---------------3-----------------|---------------3------------------|
G|-------0-----------0-------0-----|-------0-----------0-------0------|
D|---4-------4-----------4-------4-|---4-------4-----------4-------4--|
A|---------------------------------|-5---5---5---5---5---5---5---5----|
E|-3---3---3---3---3---3---3---3---|----------------------------------|

[Outro] 
(som versen)

   Och jag har vart kär....
e|---------------------------------|----------------------------------|
B|---------------3-----------------|---------------3------------------|
G|-------0-----------0-------0-----|-------0-----------0-------0------|
D|---4-------4-----------4-------4-|---4-------4-----------4-------4--|
A|-5---5---5---5---5---5---5---5---|----------------------------------|
E|---------------------------------|-0---0---0---0---0---0---0---0----|
                                                                          x
e|---------------------------------|----------------------------------|
B|---------------3-----------------|---------------3------------------|
G|-------0-----------0-------0-----|-------0-----------0-------0------|
D|---4-------4-----------4-------4-|---4-------4-----------4-------4--|
A|---------------------------------|-5---5---5---5---5---5---5---5----|
E|-3---3---3---3---3---3---3---3---|----------------------------------|

e|--------------------------------------------------------------------|
B|-------3------------------------------------------------------------|
G|-----0--------------------------------------------------------------|
D|---4------*slut*----------------------------------------------------|
A|-5------------------------------------------------------------------|
E|--------------------------------------------------------------------|



************************************

| x  Dead note  

************************************
Suggest correction
Give kudos to tab author, rate the tab!
1 2 3 4 5
comments
print report bad tab
guest
You may want to rate the tab now too:
select rating
Wanna post a correction for this tab? Suggest correction